Cifra Club

And I Love Her

The Beatles

Cifrado: Principal (guitarra y guitarra eléctrica)
tono: Fm (con acordes en la forma de F#m) Afinación: Eb Ab Db Gb Bb Eb
[Intro] F#m  E  F#m

[Tab - Intro]
              F#m             E               F#m
E|-----------------------------------------------------------|
B|-----------------------------------------------------------|
G|-----------------------------------------------------------|
D|-----------------------------------------------------------|
A|------7--6--4---------7--6--4---------7--6--4--------------|
E|---7---------------7---------------7-----------------------|

[Primeira Parte]

F#m         C#m         
I give her all my love
F#m           C#m
That's all I do
F#m         C#m          
And if you saw my love
A               B7
You'd love her too
   E
I love her

[Segunda Parte]

F#m          C#m  
She gives me everything
F#m        C#m
And tenderly
F#m         C#m
The kiss my lover brings
A              B7
She brings to me
       E
And I love  her

[Dedilhado - Segunda parte]

Parte 1 De 5

    F#m                      C#m
E|---------9-----------9-----------9-----------9-------------|
B|-----10----10----10----10-----9-----9-----9-----9----------|
G|--11----------11-----------9-----------9-------------------|
D|-----------------------------------------------------------|
A|-----------------------------------------------------------|
E|-----------------------------------------------------------|

Parte 2 De 5

    F#m                      C#m
E|---------9-----------9-----------9-----------9-------------|
B|-----10----10----10----10-----9-----9-----9-----9----------|
G|--11----------11-----------9-----------9-------------------|
D|-----------------------------------------------------------|
A|-----------------------------------------------------------|
E|-----------------------------------------------------------|

Parte 3 De 5

    F#m                      C#m
E|---------9-----------9-----------9-----------9-------------|
B|-----10----10----10----10-----9-----9-----9-----9----------|
G|--11----------11-----------9-----------9-------------------|
D|-----------------------------------------------------------|
A|-----------------------------------------------------------|
E|-----------------------------------------------------------|

Parte 4 De 5

    A                      B7
E|--------9-----------9----------11----------11--------------|
B|----10----10----10----10----10----10----10----10-----------|
G|--9-----------9----------11----------11--------------------|
D|-----------------------------------------------------------|
A|-----------------------------------------------------------|
E|-----------------------------------------------------------|

Parte 5 De 5

    E
E|---------9-----------9-----------9--------------------------|
B|-----9-----9-----9-----9-----9-----9--------9--------------|
G|--9-----------9-----------9-----------9--------------------|
D|-----------------------------------------------------------|
A|-----------------------------------------------------------|
E|-----------------------------------------------------------|

[Ponte]

C#m          B       
A love like ours
C#m          G#m
Could never die
C#m         G#m
As long as I
         B7   
Have you near me

[Terceira Parte]

F#m              C#m
Bright are the stars that shine
F#m           C#m
Dark is the sky
F#m         C#m
I know this love of mine
A           B7
Will never die
         E
And I love her

[Dedilhado - Terceira Parte]

Parte 1 De 5

              F#m            C#m
E|---------------------------------9-----------9-------------|
B|------------------------------9-----9-----9-----9----------|
G|---------------------------9-----------9-------------------|
D|-----------------------------------------------------------|
A|------7--6--4----------------------------------------------|
E|---7-------------------------------------------------------|

Parte 2 De 5

    F#m                      C#m
E|---------9-----------9-----------9-----------9-------------|
B|-----10----10----10----10-----9-----9-----9-----9----------|
G|--11----------11-----------9-----------9-------------------|
D|-----------------------------------------------------------|
A|-----------------------------------------------------------|
E|-----------------------------------------------------------|

Parte 3 De 5

    F#m                      C#m
E|---------9-----------9-----------9-----------9-------------|
B|-----10----10----10----10-----9-----9-----9-----9----------|
G|--11----------11-----------9-----------9-------------------|
D|-----------------------------------------------------------|
A|-----------------------------------------------------------|
E|-----------------------------------------------------------|

Parte 4 De 5

    A                      B7
E|--------9-----------9----------11----------11--------------|
B|----10----10----10----10----10----10----10----10-----------|
G|--9-----------9----------11----------11--------------------|
D|-----------------------------------------------------------|
A|-----------------------------------------------------------|
E|-----------------------------------------------------------|

Parte 5 De 5

    E
E|---------9-----------9-----------9--------------------------|
B|-----9-----9-----9-----9-----9-----9--------9--------------|
G|--9-----------9-----------9-----------9--------------------|
D|-----------------------------------------------------------|
A|-----------------------------------------------------------|
E|-----------------------------------------------------------|

Solo

  Gm         Dm         Gm          Dm         Gm         Dm
E|----------------------------------------------------------------|
B|----------------------------------------------------------------|
G|-----------9--7-10---------------9--9\7-----------------9--7-10-|
D|-----7--8------------------7--8-------------------7--8----------|
A|--10-------------------10---------------------10----------------|
E|----------------------------------------------------------------|

  Bb          C7               F                      Gm
E|----------------------------------------------------------------|
B|----------------------------------------------------------------|
G|--10--7-------------------------2-------------------------------|
D|---------8--7--7\5-----------0----------------------------------|
A|-----------------------3--3-------------3--0--------------------|
E|----------------------------------------------3--1--1/3---------|

[Quarta Parte]

Gm               Dm
Bright are the stars that shine
Gm            Dm
Dark is the sky
Gm          Dm
I know this love of mine
Bb          C7
Will never die
       F
And I love her

[Dedilhado - Quarta parte]

Parte 1 De 5

    Gm                       Dm
E|--------------------------------10----------10-------------|
B|---(| Final do Solo)-----------10----10----10----10----------|
G|--------------------------10----------10-------------------|
D|-----------------------------------------------------------|
A|-----------------------------------------------------------|
E|-----------------------------------------------------------|

Parte 2 De 5

    Gm                      C#m
E|--------10----------10----------10----------10-------------|
B|-----11----11----11----11----10----10----10----10----------|
G|--12----------12----------10----------10-------------------|
D|-----------------------------------------------------------|
A|-----------------------------------------------------------|
E|-----------------------------------------------------------|

Parte 3 De 5

    Gm                      C#m
E|--------10----------10----------10----------10-------------|
B|-----11----11----11----11----10----10----10----10----------|
G|--12----------12----------10----------10-------------------|
D|-----------------------------------------------------------|
A|-----------------------------------------------------------|
E|-----------------------------------------------------------|

Parte 4 De 5

   Bb                      C7
E|-------10----------10----------11---------11---------------|
B|----11----11----11----10----10----10---10----10------------|
G|-10----------10----------11----------11--------------------|
D|-----------------------------------------------------------|
A|-----------------------------------------------------------|
E|-----------------------------------------------------------|

Parte 5 De 5

    F
E|--------10----------10----------10--------------------------|
B|----10----10----10----10----10----10-----------------------|
G|-10----------10----------10----------10--------------------|
D|-----------------------------------------------------------|
A|-----------------------------------------------------------|
E|-----------------------------------------------------------|

[Dedilhado - Final]

              Gm              F               Gm             D
E|---------------------------------------------------------------|
B|---------------------------------------------------------------|
G|---------------------------------------------------------------|
D|---------------------------------------------------------------|
A|------8--7--5---------8--7--5---------8--7--5--------8--7--5---|
E|---8---------------8---------------8--------------8------------|
00:00 / 00:00
Otros videos de esta canción
Repetir
Otros videos de esta canción
Composición de John Lennon / Paul McCartney
254.630 vistas
  • Simplificar cifrado
    • ½ Tono
    • Am
    • Bbm
    • Bm
    • Cm
    • C#m
    • Dm
    • Ebm
    • Em
    • Fm
    • F#m
    • Gm
    • G#m
  • Agregar a la lista

    0 comentarios

    Ver todos los comentarios

    ¿Lograste tocar?

    162 Tocaron 13 Aún no

    ¡Graba un video tocando And I Love Her y envíanoslo!

    00:00 / 00:00
    OK