Cifra Club

Blackbird/Yesterday

The Beatles

Cifrado: Principal (guitarra y guitarra eléctrica)
tono: F (con acordes en la forma de G) Afinación: D G C F A D
Afinação: D G C F A D

[Intro]

E|---------------------------------------|
B|--0---1---3---12---12----12---12-------|
G|--------0---0---0---0-0----0-----0-0---|
D|---------------------------------------|
A|------0---2---10---10----10---10-------|
E|--3------------------------------------|

E|------3-------5------------------3--------------------------------|
B|--5-------7-------8----8-----7-------5----4----3----2----1-----0--|
G|-------------------0-0---0-0------------0-0--0-0--0-0--0-0--0-0---|
D|------------------------------------------------------------------|
A|--3---4---5---6---7----6-----5---4---3----3----2----0----0--------|
E|---------------------------------------------------------------3--|

E|------------------------------------------------------------------|
B|--5-----3---2----1----0------0----1---3---12----12---12----12-----|
G|---0-----0---0-0--0-0----------0----0---0----0-0---0----0-0-------|
D|------------------------------------------------------------------|
A|--3-----2---0---------------------0---2---10----10---10----10-----|
E|----------------------3------3------------------------------------|

( G )

G        F#m       B7                 Em      D C 
Yesterday,  all my troubles seemed so far away
C      D7                      G        
Now it looks as though they're here to stay
    Em   A        C     G
Oh, I  believe in yesterday

G       F#m        B7             Em        D C
Suddenly,  I'm not half the man I used to be
C         D7             G     
There's a shadow hanging over me
    Em    A        C     G
Oh, yesterday came suddenly

B7       Em  D  C   Am      D7                 G   
Why, she had to go, I don't know, she wouldn't say
B7     Em  D     C      Am    D7             G  D C G
I said something wrong, now I long for yesterday

G        F#m         B7           Em          D C 
Yesterday,  love was such an easy game to play
C      D7             G         
Now I need a place to hide away
    Em  A        C     G
Oh, I believe in yesterday

B7       Em  D  C   Am      D7                 G   
Why, she had to go, I don't know, she wouldn't say
B7     Em  D     C      Am    D7             G  D C G
I said something wrong, now I long for yesterday

G        F#m         B7           Em          D C
Yesterday,  love was such an easy game to play
C     D7              G         
Now I need a place to hide away
    Em  A        C     G
Oh, I believe in yesterday

G       A7      C       G
Mmm mmm mmm mmm mmm-mmm-mmmmm
Composición de LennonMcCartney
Colaboración y revisión:
  • éder augusto
504 vistas
    • ½ Tono
    • A
    • Bb
    • B
    • C
    • Db
    • D
    • Eb
    • E
    • F
    • F#
    • G
    • Ab
  • Agregar a la lista

    0 comentarios

    Ver todos los comentarios
    00:00 / 00:00
    Outros vídeos desta música
    Repetir Calidad Automático
    Outros vídeos desta música
    00:00 / 00:00
    Automático
    OK