Cifra Club

Helter Skelter

The Beatles

Acordes: Principal
reproducciones 6.092
Tono: E
Intro:


-|--7/0--(repeat)--------------------------------------------------|
-|--5/3--(repeat)--------------------------------------------------|
-|-----------------------------------------------------------------|
-|-----------------------------------------------------------------|
-|-----------------------------------------------------------------|
-|-----------------------------------------------------------------|

           When I get to the bottom I go back to the top of the


-|-----0--(repeat)-------------------------------------------------|
-|-----2--(repeat)-------------------------------------------------|
-|-----------------------------------------------------------------|
-|-----------------------------------------------------------------|
-|-----------------------------------------------------------------|
-|-----------------------------------------------------------------|

    slide, where I stop and I turn and I go for a


                                                   G
-|-----0--(repeat)-------------------------------------------------|
-|-----1--(repeat)-------------------------------------------------|
-|-----------------------------------------------------------------|
-|-----------------------------------------------------------------|
-|------------------------------------------------5--5--6--6-------|
-|------------------------------------------------3--3--3--3-------|

    ride, till I get to the bottom and I see you again.


                            E
-|-----------------------------------------------------------------|
-|-----------------------------------------------------------------|
-|-----------------------------------------------------------------|
-|-----------------------------------------------------------------|
-|--5--5--6---------6------2--2--2--2--3\2--2--2--2----------------|
-|--3--3--3---------3------0--0--0--0--1\0--0--0--0----------------|

          Yeah yeah  yeah!


Verse:

     E
Well do you don't you want me to make you

I'm coming down fast but don't let me break you
                                 G
Tell me tell me tell me come on tell me the answer
          A                                E
Well you may be a lover but you ain't no dancer.



Chorus:

             A
-|--------------------------------------------------------|
-|--------------------------------------------------------|
-|-------------------------0------------------------------| 
-|----------2---2---4---4-----4--2--0---------------------|
-|----------0---0---0---0--------------4--2--0------------|
-|--------------------------------------------------------|

    Well, Helter Skelter

      E
-|--------------------------------------------------------|
-|--------------------------------------------------------|
-|--------------------------------------------------------|
-|------------------0-------------------------------------|
-|---2---2---4---4-----4--2--0----------------------------|
-|---0---0---0---0--------------4--2--0-------------------|

    Helter skelter

      A                                    E
-|--------------------------------------------------------|
-|--------------------------------------------5b(7)-------|
-|--------------------------------------------------------|
-|---2---2---4---4--5--4--2-------------------------------|
-|---0---0---0---0-----------5--4--2--0-------------------|
-|--------------------------------------------------------|

    Helter skelter                        Yeah



     E                          A                      E
-|----------------------7--7--15b(17)--15b(17)--b(17)15-------------|
-|----------------------0--0----------------------------------------|
-|----------------------9--9----------------------------------------|
-|------------------------------------------------------------------|
-|------------------------------------------------------------------|
-|------------------------------------------------------------------|

    'Cos here she comes

                                   A                                    E
-|--------------------------------------------------------------------------|
-|--b(17)15b(17)15---------------13b(14)------------------b(17)15-----------|
-|------------------b(14)12---------------b(14)12b(14)12-----------12-------|
-|---------------------------14----------------------------------------14~--|
-|--------------------------------------------------------------------------|
-|--------------------------------------------------------------------------|


-|--12--15b(17)--b(17)15--12------12----------------------------------------|
-|----------------------------15------15\10-----10b(12)--b(12)10--8---------|
-|-------------------------------------------9-----------------------7--9---|
-|--------------------------------------------------------------------------|
-|--------------------------------------------------------------------------|
-|--------------------------------------------------------------------------|


-|--b(17)15------------------------------------------------------------|
-|-----------b(17)15---------------------------------------------------|
-|--------------------b(16)14------------------------------------------|
-|-----------------------------b(14)12---------------------------------|
-|--------------------------------------b(14)12------------------------|
-|---------------------------------------------------------------------|
Acordes para:
    Colaboración y revision:
    • Pedro Arantes
    • Diego Gomes

    0 comentarios

      mostrar mas comentarios

      ¿Conseguiste tocar?

      24tocaron0aún no

      ¡Grave un vídeo tocando Helter Skelter y envie para nosotros!

      00:00 / 00:00
      outros vídeos desta música
      repetirqualidadeautomática
      Outro vídeos desta música
        00:00 / 00:00
        automática
        OK