Cifra Club

Here Comes The Sun

The Beatles

Tab de bajo: Principal
A intro
|-----------|
|-----------|
|-----------|
|-----------|

B 1st chorus
   here comes the sun...
|-------------------------|-----------------|-----------------------------|
|-------------------------|-----------------|-----------------------------|
|-------------------------|--5-----4-----2--|--------------------2--------|
|-------------------------|-----------------|--5-----O-----4-----------O--|

C verses %
   little darling...
|-----------------------|--------------------------|-------------------------|
|*-------7--7--7-----7--|--7-----7---7-----7---7\--|-------------------------|
|*----------------------|--------------------------|--5-----5---5-----5---5--|
|--5--------------------|--------------------------|-------------------------|

|-----------------------------|---------------------------|-----------------------------|
|----------------------4---6--|--7-----7---7-----7-----7--|--7-----7---7-----4----------|
|--7-----7---7-----7----------|---------------------------|----------------------7---4--|
|-----------------------------|---------------------------|-----------------------------|

|-------------------------|-----------------------------|
|-------------------------|----------------------4---6--|
|--5-----5---5-----4---5--|--7-----7---7-----7----------|
|-------------------------|-----------------------------|

D 2nd, 3rd and 4th choruses
   here comes the sun...
|---------------------------|---------------------------|-----------------|
|--7-----7---7-----7--------|--7-----7---7---4----------|-----------------|
|------------------------7--|--------------------7---4--|--5-----5-----5--|
|---------------------------|---------------------------|-----------------|

|-----------------------------|--------------------------|-----------------|
|-----------------------------|--------------------------|-----------------|
|--------------------------6--|--7--------------4--5--7--|--5-----4--------|
|--7-----7---7-----7---7------|-----5--5--5--5-----------|--------------7--|

3rd time to CODA                                     1___________________ 2__________
|-----------------------|---------------------------|--------------------|-----------|-----|
|-----------------------|--7-----7---7---7---7------|-------------------*|-----------|-----|
|----------------2------|------------------------5--|--7---7-----7---7--*|--7-----7--|-----|
|--5-----O---4-------O--|---------------------------|--------------------|-----------|-----|

E bridge
|--5--|-----|-----------|-----------------------|-----------|--------4--|--5--|-----|
|-----|--5--|--4--------|--7-----7-----7-----7--|-----------|-----6-----|*----|--5--|
|-----|-----|--------5--|-----------------------|--7-----7--|--7--------|*----|-----|
|-----|-----|-----------|-----------------------|-----------|-----------|-----|-----|
             1,2,3,4________________________________________ 5__________________________
|-----------|-----------------------|-----------|--------4--|---------------------------|
|--4--------|--7-----7-----7-----7--|-----------|-----6----*|--7-----7-----7---7--------|
|--------5--|-----------------------|--7-----7--|--7-------*|------------------------7--|
|-----------|-----------------------|-----------|-----------|---------------------------|

   play 3 times                             D.S. % CODA
|----------------------------|--------------------------|
|*--------------------------*|--------------------------|
|*--7--7--7--7--7--7--7--7--*|--7--7--7--7--7--7--7--7--|
|----------------------------|--------------------------|

CODA
   here comes the sun...
|-----------------------|-------------------------|-------------------------|
|--7-----7-----7---7----|--7-----7-----7---7------|-------------------------|
|-----------------------|----------------------4--|--5-----5-----7---5------|
|-----------------------|-------------------------|----------------------7--|

|-----------------------|---------------------------------|-----------------|
|-----------------------|--------------------------4---7--|-----------------|
|--------------------6--|------------------4---7----------|--5-----4--------|
|--7--7--7--7--7--9-----|--5---5---5---7------------------|--------------7--|

|-----------------------|-------------------------|-----------------|-----------------------|
|-----------------------|--7-----7---4------------|-----------------|-----------------------|
|----------------2------|------------------7---4--|--5-----4--------|----------------2------|
|--5-----O---4-------O--|-------------------------|--------------7--|--5-----O---4-------O--|

|------|-----|
|------|-----|
|--3---|-----|
|------|-----|


_______________________________________________________
Contribuição: valdir felix junior(paulislivefaclube@ig.com.br)
Composición de George Harrison
820 vistas

0 comentarios

Ver todos los comentarios
00:00 / 00:00
Outros vídeos desta música
Repetir Calidad Automático
Outros vídeos desta música
00:00 / 00:00
Automático
OK