Cifra Club

Hey Jude

The Beatles

Tablatura: Tablatura (guitarra)
Tom: A#
E|---------------------------------------|
B|-1---------1--3------------------------|
G|----2--2----------0--------------------|
D|---------------------------------------|
A|---------------------------------------|
E|---------------------------------------|
Hey Jude don´t make it bad

E|-------------1--1--0-----------------------|
B|-----------------------1--3--1-------------|
G|-0--2--3-----------------------3--2--------|
D|-------------------------------------------|
A|-------------------------------------------|
E|-------------------------------------------|
Take a sad song and make it better

E|------------3--1--0--1-----------|
B|-1-3-3-3---------------3--1------|
G|---------------------------------|
D|---------------------------------|
A|---------------------------------|
E|---------------------------------|
Remember to let her into your heart

E|-----------------------------------------|
B|-----------3--1--1-----------------------|
G|----0--2-------------3--2----------------|
D|-3--------------------------2--3---------|
A|-----------------------------------------|
E|-----------------------------------------|
And then you can start to make it better

E|--------------------------|
B|-1--------1--3------------|
G|----2--2--------0---------|
D|--------------------------|
A|--------------------------|
E|--------------------------|
Hey Jude don´t be afraid

E|-----------1--1--0----------------------|
B|---------------------1--3--1------------|
G|-0--2--3----------------------3--2------|
D|----------------------------------------|
A|----------------------------------------|
E|----------------------------------------|
You were made to go out and get her

E|---------------3--1--0--1----------|
B|-1--3--3--3---------------3--1-----|
G|-----------------------------------|
D|-----------------------------------|
A|-----------------------------------|
E|-----------------------------------|
The minute you let her under your skin

E|------------------------------------|
B|------------3--1--1-----------------|
G|-----0--2-------------3--2----------|
D|-3---------------------------2--3---|
A|------------------------------------|
E|------------------------------------|
Then you begin to make it better

E|-------1---------------------1-----1-----------|
B|----------3--3--1--1-----3----3----------------|
G|------------------------3--------------3-------|
D|--3--------------------------------------------|
A|-----------------------------------------------|
E|-----------------------------------------------|
And anytime you feel the pain hey Jude refrain

E|-1--------------------------------------|
B|----3--1-----1--3--1--------------------|
G|-----------3------------3--2--0---------|
D|-------------------------------------3--|
A|----------------------------------------|
E|----------------------------------------|
Don´t carry the world upon your shoulders

E|-------1---------------------1-----1-----------|
B|----------3--3--1--1-----3----3----------------|
G|------------------------3--------------3-------|
D|--3--------------------------------------------|
A|-----------------------------------------------|
E|-----------------------------------------------|
For well you know that its a fool who plays it cool

E|1---------------------------------------|
B|----3--1-----1--3--1--------------------|
G|-----------3------------3--2--0---------|
D|-------------------------------------3--|
A|----------------------------------------|
E|----------------------------------------|
By making his world a little colder

E|--------------------0--1--3--3--3--5--6--6|
B|-----1--3--4--4---------------------------|
G|------------------------------------------|
D|-3----------------------------------------|
A|------------------------------------------|
E|------------------------------------------|
Na, na, na, na, na, na, na, na, na

E|--------------------|
B|-1---------1--3-----|
G|----2--2---------0--|
D|--------------------|
A|--------------------|
E|--------------------|
Hey Jude dont let me down

E|------------1--1--0---------------------|
B|----------------------1--3--1-----------|
G|-0--2--3-----------------------3--2-----|
D|----------------------------------------|
A|----------------------------------------|
E|----------------------------------------|
You have found her now go and get her

E|---------------3--1--0--1-----------|
B|-1--3--3--3----------------3--1-----|
G|------------------------------------|
D|------------------------------------|
A|------------------------------------|
E|------------------------------------|
Remember to let her into you heart

E|------------------------------------|
B|------------3--1--1-----------------|
G|-----0--2-------------3--2----------|
D|-3---------------------------2--3---|
A|------------------------------------|
E|------------------------------------|
Then you can start to make it better

E|-------1---------------------1-----1---------|
B|----------3--3--1--1-----3----3--------------|
G|------------------------3--------------3-----|
D|--3------------------------------------------|
A|---------------------------------------------|
E|---------------------------------------------|
So let it out and let it in hey Jude begin

E|-1-------------------------------------|
B|----3--1-----1--3--1-------------------|
G|-----------3------------3--2--0--------|
D|-------------------------------------3-|
A|---------------------------------------|
E|---------------------------------------|
Your waiting for someone to perform with

And dont you know that its

Just you hey Jude you'll do
E|-------1---------------------1-----1---------|
B|----------3--3--1--1-----3----3--------------|
G|------------------------3--------------3-----|
D|--3------------------------------------------|
A|---------------------------------------------|
E|---------------------------------------------|

E|-1-------------------------------------|
B|----3--1-----1--3--1-------------------|
G|-----------3------------3--2--0--------|
D|-------------------------------------3-|
A|---------------------------------------|
E|---------------------------------------|
The movement you need is on your shoulders

E|--------------------0--1--3--3--3--5--6--6|
B|-----1--3--4--4---------------------------|
G|------------------------------------------|
D|-3----------------------------------------|
A|------------------------------------------|
E|------------------------------------------|
Na, na, na, na, na, na, na, na, na

E|-----------------------|
B|-1---------1--3--------|
G|----2--2---------0-----|
D|-----------------------|
A|-----------------------|
E|-----------------------|
Hey Jude don´t make it bad

E|------------1--1--0-------------------|
B|----------------------1--3--1---------|
G|-0--2--3-----------------------3--2---|
D|--------------------------------------|
A|--------------------------------------|
E|--------------------------------------|
Take a sad song and make it better

E|---------------3--1--0--1---------|
B|-1--3--3--3----------------3--1---|
G|----------------------------------|
D|----------------------------------|
A|----------------------------------|
E|----------------------------------|
Remember to let her into your heart

E|----------------------------------|
B|------------3--1--1---------------|
G|-----0--2-------------3--2--------|
D|-3---------------------------2--3-|
A|----------------------------------|
E|----------------------------------|
And then you can start to make it better

E|----------------------------------------------|
B|---------1------8-6--8-6-----8--6--8--6-------|
G|-----2-----------------------------------7-5--|
D|-3--------------------------------------------|
A|----------------------------------------------|
E|----------------------------------------------|
   Na na na na na na na na na na na na Hey Jude     (6x)
reproducciones 3.670
Acordes para:
    Composição: John Lennon / Paul McCartney Colaboración y revision:

    0 comentarios

    mostrar más comentarios

    ¿Conseguiste tocar?

    81 tocaron 0 aún no

    ¡Graba un vídeo tocando Hey Jude y envianoslo!

    00:00 / 00:00
    outros vídeos desta música
    repetir qualidade Automático
    Outros vídeos desta música
    00:00 / 00:00
    Automático
    Capítulos
    • Início
    • Dicas iniciais
    • Acordes da primeira parte
    • Tocando a primeira parte
    • Ensinando o ritmo da primeira parte
    • Acordes da segunda parte
    • Tocando a segunda parte
    • Ensinando o ritmo da segunda parte
    • Acordes da terceira parte
    • Tocando a terceira parte
    • Ensinando o ritmo da terceira parte
    • Tocando trecho da música
    • Acordes da quinta parte
    • Tocando a quinta parte (Coral Especial)
    • Encerramento
    • Extras
    OK