Cifra Club

Hey Jude

The Beatles

Tab de bajo: Principal
A % 1,2

   hey jude don't...                        sad song
       jude don't be                        made to
       jude don't let                       found her
            don't make                      sad song
|------------------------|---------------|---------------------------|
|*--3---3---3---3--------|---------------|--------2---5-----------2--|
|*-----------------------|--3---------3--|--3-------------3---5------|
|------------------------|--------3------|---------------------------|

                                               heart
                                               skin
                                               heart
                                               skin                                     to coda
|---------------------|---------------------|---------------------|--------------------|
|--3------------------|---------------------|---------------------|--------------------|
|--------O---3--------|--1-----------1---3--|--------O---3--------|--3--------3-----3--|
|------------------1--|--------1------------|--1---------------1--|--------3-----------|

                                                and any...
1________________  2_________________________   so let it...
|----------------|---------------------------|---------------------------------|
|---------------*|---------------------------|---------------------------------|
|---------------*|---------------------------|------------------------------O--|
|----------------|--1---1-----1-----1-----O--|--1---1---1---1---1---1---3------|

B
   hey jude refrain              don't carry...
   hey jude begin                you're...
|-----------------------|-----------------------|-----------------------|
|-----------------------|-----------------------|-----------------------|
|--1-----1-----O-----O--|-----------------------|--------------3-----3--|
|-----------------------|--3-----3-----1-----1--|--O-----3--------------|

|---------------------------------|------------------------------------------------------|
|---------------------------------|------------------------------------------------------|
|---------------------------------|---------------------------------(--------------O--)--|
|--1---1---1---1---1---1---1---1--|--1---1---1---1---1---1---1---1--(--1---1---3------)--|

       who plays...                by making
       hey jude...                 the movement      
|-------------------------|-----------------------|---------------------|
|-------------------------|-----------------------|---------------------|
|--1---1-----1---O-----O--|-----------------------|------------3--------|
|-------------------------|--3-----3-----1-----1--|--O-----3---------3--|

|---------------------------|-----------------|--------------------------|------------|
|---------------------------|-----------------|--------------------------|------------|
|---------------------------|-----------------|--3--3--3--3--3--3--3--3--|--2-H-3-----|
|--1-----1---1---1---1---1--|--1---1---1---1--|--------------------------|------------|

CODA
|--------------------------|-----------------|
|--------------------------|--3--3--3--------|
|--------------------------|-----------3-----|
|--1--1--1--1--1--1--1--1--|--------------1--|

C
   da  da  da
|---------------------------|--------------------------|--------------------------|
|*--3--3--3--3--3--3--3--3--|--1--1--1--1--1--1--1--1--|--------------------------|
|*--------------------------|--------------------------|--1--1--1--1--1--1--1--1--|
|---------------------------|--------------------------|--------------------------|

|-----------------------------|
|----------------------------*|
|-------------------------3--*|
|--1--1--1--1--1--1--1/5------|

D (4 times)
|---------------------------|--------------------------|--------------------------|
|*--3--3--3--3--3--3--3--3--|--1--1--1--1--1--1--1--1--|--------------------------|
|*--------------------------|--------------------------|--1--1--1--1--1--1--1--1--|
|---------------------------|--------------------------|--------------------------|

|------------------------------|
|-----------------------------*|
|--------------------------3--*|
|--1--1--1--1--1--1--1--5------|


E
|---------------------------|--------------------------|--------------------------|
|*--3--3--3--3--3--3--3--3--|--1--1--1--1--1--1--1--1--|--------------------------|
|*--------------------------|--------------------------|--1--1--1--1--1--1--1--1--|
|---------------------------|--------------------------|--------------------------|

|------------------------------|
|-----------------------------*|
|--------------------------3--*|
|--1--1--1--1--1--1--1--5------|



_______________________________________________________
Contribuição: valdir felix junior(paulislive@ibest.com.br)
reproducciones 1.575

0 comentarios

mostrar más comentarios

¿Conseguiste tocar?

6 tocaron 0 aún no

¡Graba un vídeo tocando Hey Jude y envianoslo!

00:00 / 00:00
outros vídeos desta música
repetir qualidade Automático
Outros vídeos desta música
00:00 / 00:00
Automático
OK