Cifra Club

In My Life

The Beatles

Cifrado: Principal (guitarra y guitarra eléctrica)
Selo Cifra Club: esta cifra foi revisada para atender aos critérios oficiais da nossa Equipe de Qualidade.
tono: E (forma dos acordes no tom de D) Capotraste na 2ª casa
[Intro] G  D  G  D

   G             D
E|---5----------4---------------------------|
B|-2----2h3--5--5----5-----5----------------|
G|-2------------4----4-----4----------------|
D|-2------------2--2---2-2---2--------------|
A|------------------------------------------|
E|-5----5-----------------------------------|

[Primeira Parte]

   G         D5/F#   Em      F5-(9/13)
E|------------------------------------------|
B|-----5--------5------2--x--2---2----------|
G|-----2--------4------2--x--2---2----------|
D|---2---2----2---2----4--x--2-2---2--------|
A|------------------------------------------|
E|-5--------4--------2-------3--------------|

   C        Cm        G
E|------------------------------------------|
B|-----3---------6----------5---------------|
G|-----2---------7--------2---2-------------|
D|---4---4----7----7----2-------------------|
A|-5--------5-------------------------------|
E|--------------------5---------------------|

   G         D5/F#   Em      F5-(9/13)
E|------------------------------------------|
B|-----5--------5------2--x--2---2----------|
G|-----2--------4------2--x--2---2----------|
D|---2---2----2---2----4--x--2-2---2--------|
A|------------------------------------------|
E|-5--------4--------2-------3--------------|

   C        Cm        G
E|-------------------------------5--5--5----|
B|-----3---------6-----------5---5--5--5----|
G|-----2---------7--------2--2---2--2--2----|
D|---4---4----7----7----2----2---2--2--2----|
A|-5--------5----------------4---4--4--4----|
E|--------------------5------5---5--5--5----|
                              ↑   ↑  ↓  ↑

            G    D5/F#   Em    F5-(9/13)
There are places I'll remember
        C    Cm        G
All my li__ife though some have changed
              D5/F#   Em    F5-(9/13)
Some forever not for better
           C  Cm       G
Some have go__one and some remain
            Em              C
All these places had their moments
      F                     G
With lovers and friends I still can recall
          Em                A7
Some are dead and some are living
    C  Cm              G
In my     life I've loved them all

( G  D )

   G            D
E|---5----------4---------------------------|
B|-2----2h3--5--5----5-----5----------------|
G|-2------------4----4-----4----------------|
D|-2------------2--2---2-2---2--------------|
A|------------------------------------------|
E|-5----5-----------------------------------|

       G           D5/F#      Em    F5-(9/13)
But of all these friends and lovers
          C Cm      G
There is no one compares with you
                    D5/F#         Em   F5-(9/13)
And these memories lose their meaning
         C       Cm      G
When I think of love as something new
           Em                    C
Though I know I'll never lose affection
     F                      G
For people and things that went before
    Em                              A7
I know I'll often stop and think about them
    C  Cm            G
In my     life I'll love you more

( G  D )

   G            D
E|---5----------4---------------------------|
B|-2----2h3--5--5----5-----5----------------|
G|-2------------4----4-----4----------------|
D|-2------------2--2---2-2---2--------------|
A|------------------------------------------|
E|-5----5-----------------------------------|

    C  Cm                    G
In my    life I'll love you more

   G            D  D7      G
E|---5----------4--4-2-4---5----------------|
B|-2----2h3--5--5--3-------5----------------|
G|-2------------4--4-------2----------------|
D|-2------------2---------------------------|
A|------------------------------------------|
E|-5----5------------------5----------------|
Otros videos de esta canción
    166.611 exhibiciones
    • Simplificar cifrado
      • ½ Tono
      • A
      • Bb
      • B
      • C
      • Db
      • D
      • Eb
      • E
      • F
      • F#
      • G
      • Ab
    • Agregar a la lista

    Afinação da cifra

    Afinador online

      Capítulos
      • Início
      • Dicas iniciais
      • Tocando a música
      • Acordes da introdução e primeira parte
      • Tocando intro e primeira parte
      • Ensinando dedilhado (parte 1)
      • Ensinando dedilhado (parte 2)
      • Ensinando dedilhado (parte 3)
      • Ensinando dedilhado (parte 4)
      • Acordes da segunda parte
      • Tocando segunda parte
      • Ensinando ritmo segunda parte
      • Acorde trecho final
      • Tocando trecho final
      • Ensinando ritmo final
      • Encerramento
      Ops (: Contenido disponible solo en portugués.
      OK