Cifra Club

I've Just Seen A Face

The Beatles

Tab de bajo: Principal
(Intro)

   1 2 3 4 | 1 2 3 4 | 1 2 3 4 | 1 2 3 4 | 1 2 3 4 | 1 2 3 4 |
G|-----2-1-|---------|---------|---------|---------|---------|
D|---------|-4---4---|-4---4-2-|-0---0---|-0---0---|---------|
A|---------|---------|---------|---------|-------4-|-2---0---|
E|---------|---------|---------|---------|---------|-------4-|

(Verse 1)
  "I've just seen a face..."
   1 2 3 4 | 1 2 3 4 | 1 2 3 4 | 1 2 3 4 | 1 2 3 4 | 1 2 3 4+| 1 2 |
G|-2-2-2-2-|-2-2-2-1-|---------|---------|---------|---------|-----|
D|---------|---------|-4-4-4-4-|-4-4-4-2-|-0-0-0---|---------|-----|
A|---------|---------|---------|---------|-------4-|-2-2-2-0-|-0-0-|
E|---------|---------|---------|---------|---------|--------4|-----|

(Verse 2)
  "Had it been another day..."
   1 2 3 4 | 1 2 3 4 | 1 2 3 4 | 1 2 3 4 | 1 2 3 4 | 1 2 3 4+| 1 2 |
G|-2-2-2-2-|-2-2-2-1-|---------|---------|---------|---------|-----|
D|---------|---------|-4-4-4-4-|-4-4-4-2-|-0-0-0---|---------|-----|
A|---------|---------|---------|---------|-------4-|-2-2-2-0-|-0-0-|
E|---------|---------|---------|---------|---------|--------4|-----|

(Chorus)
  "Falling, Yes I am falling, And she keeps calling me back again"
   E         D         A     D   A
   1 2 3 4 | 1 2 3 4 | 1 2 3 4 | 1 2 3 4 |
G|---------|---------|---------|---------|
D|-2-2-2-4-|-0-0-0-2-|-------0-|---------|
A|---------|---------|-0-0-0---|-0-0-0-0-|
E|---------|---------|---------|---------|

(Verse 3)
  "I have never known the like of this..."
   1 2 3 4 | 1 2 3 4 | 1 2 3 4 | 1 2 3 4 | 1 2 3 4 | 1 2 3 4+| 1 2 |
G|-2-2-2-2-|-2-2-2-1-|---------|---------|---------|---------|-----|
D|---------|---------|-4-4-4-4-|-4-4-4-2-|-0-0-0---|---------|-----|
A|---------|---------|---------|---------|-------4-|-2-2-2-0-|-0-0-|
E|---------|---------|---------|---------|---------|--------4|-----|

(Chorus)
  "Falling, Yes I am falling, And she keeps calling me back again"
   E         D         A     D   A
   1 2 3 4 | 1 2 3 4 | 1 2 3 4 | 1 2 3 4 |
G|---------|---------|---------|---------|
D|-2-2-2-4-|-0-0-0-2-|-------0-|---------|
A|---------|---------|-0-0-0---|-0-0-0-0-|
E|---------|---------|---------|---------|


Solo Section (repeat verse)
   1 2 3 4 | 1 2 3 4 | 1 2 3 4 | 1 2 3 4 | 1 2 3 4 | 1 2 3 4+| 1 2 |
G|-2-2-2-2-|-2-2-2-1-|---------|---------|---------|---------|-----|
D|---------|---------|-4-4-4-4-|-4-4-4-2-|-0-0-0---|---------|-----|
A|---------|---------|---------|---------|-------4-|-2-2-2-0-|-0-0-|
E|---------|---------|---------|---------|---------|--------4|-----|

(Chorus)
  "Falling, Yes I am falling, And she keeps calling me back again"
   E         D         A     D   A
   1 2 3 4 | 1 2 3 4 | 1 2 3 4 | 1 2 3 4 |
G|---------|---------|---------|---------|
D|-2-2-2-4-|-0-0-0-2-|-------0-|---------|
A|---------|---------|-0-0-0---|-0-0-0-0-|
E|---------|---------|---------|---------|

(Repeat Verse 1)
  "I've just seen a face..."
   1 2 3 4 | 1 2 3 4 | 1 2 3 4 | 1 2 3 4 | 1 2 3 4 | 1 2 3 4+| 1 2 |
G|-2-2-2-2-|-2-2-2-1-|---------|---------|---------|---------|-----|
D|---------|---------|-4-4-4-4-|-4-4-4-2-|-0-0-0---|---------|-----|
A|---------|---------|---------|---------|-------4-|-2-2-2-0-|-0-0-|
E|---------|---------|---------|---------|---------|--------4|-----|

(Chorus) (x2)
  "Falling, Yes I am falling, And she keeps calling me back again"
   E         D         A     D   A
   1 2 3 4 | 1 2 3 4 | 1 2 3 4 | 1 2 3 4 |
G|---------|---------|---------|---------|
D|-2-2-2-4-|-0-0-0-2-|-------0-|---------|
A|---------|---------|-0-0-0---|-0-0-0-0-|
E|---------|---------|---------|---------|

(Chorus)
  "Falling, Yes I am Falling, And she keeps calling me back again"
   1 2 3 4 | 1 2 3 4 | 1 2 3 4 | 1e+a 2e+a 3e+a 4e+a| 1+2 3 4 |
G|---------|---------|---------|--------------------|-(2)-----|
D|-2-2-2-4-|-0-0-0-2-|-------0-|-0------------------|---------|
A|---------|---------|-0-0-0---|------4----2--2-0---|-0-------|
E|---------|---------|---------|-----------------4--|---------|


That's it. it's pretty easy but the song goes really fast. the last note in ( ) is just
show that there's a chord that the guitar part plays, so don't actually play that note.

Also, I've seen two different ways to play this. one has the verses and solo played A,
D, E, A chord progression with an E, D, A, D, A chorus progression. the other one i've
is G, Em, C, D, C verse and solo while the chorus is D, C, G, C, G. the first one sound 
to me but if you want to change it just take everything down a whole step (2 frets).
Composición de John Lennon / Paul McCartney
236 vistas

0 comentarios

Ver todos los comentarios
00:00 / 00:00
Outros vídeos desta música
Repetir Calidad Automático
Outros vídeos desta música
00:00 / 00:00
Automático
OK