Cifra Club

Let It Be

The Beatles

Tab de bajo: Principal
Já pensou em usar uma coleção de roupas do Cifra Club? Responda as perguntas abaixo e nos ajude nessa missão! →
[Verso]
 
G|------------5-------------------/5------------------------5-5-5-|
D|-----------5-----5----7----5--3-----------2--5----3-2-0---------|
A|---7-5-3------------------------------3------------------3------|
E|----------------------------------------------------------------|

[Refrão] 

G|--------/5----/5-----/5-----------------------------------5-5-5-|
D|----7—7---5—5---3--3----------2-3-5-----2-3-5-----3-2-0---------|  
A|------------------------3----3-------3-------------------3------|
E|----------------------------------------------------------------|

G|--------/5----/5-----/5-----------------------------------5-5-5-|
D|----7—7---5—5---3--3----------2-3-5-----2-3-5-----3-2-0---------|  
A|------------------------3----3-------3-------------------3------|
E|----------------------------------------------------------------|

[Solos – Piano e Guitarra]

G|-----------------------------5---------5------5-5-5—5/7--5------|
D|-----3-----5--3-----------3------5--3-----------------------7--5|
A|--------3--------3----------------------------------------------|
E|----------------------------------------------------------------|

G|------------------------------------------------5-5-5-5---------|
D|-------3-4-5-----7--5--3------2-3-5---3--2-0--------------------|
A|--3-3----------------------3------------------3-----------------|
E|----------------------------------------------------------------|

G|------------------------/5-------------------------5-5-5-5------|
D|------3-4-5-----7--5--3--------2-3-5----3--2-0------------------|
A|--3-3------------------------3------------------3---------------|
E|----------------------------------------------------------------|

[Refrão]

G|--------/5----/5-----/5-----------------------------------5-5-5-|
D|----7—7---5—5---3--3----------2-3-5-----2-3-5-----3-2-0---------|  
A|------------------------3----3-------3-------------------3------|
E|----------------------------------------------------------------|

[Versos]

G|--------------------------------------------------5-5-5-5-------|
D|-------5-----7--5--3--------2-3-5----3--2-0---------------------|
A|--3-3--------------------3----------------------3---------------|
E|----------------------------------------------------------------|

G|--------------------------------------------------5-5-5-5-------|
D|-------5-----7--5--3--------2-3-5----3--2-0---------------------|
A|--3-3--------------------3----------------------3---------------|
E|----------------------------------------------------------------|

[Refrões Finais]

G|----/5----/5------/5---5-5-5-0-------------------------/5-/5-/5-|
D|-7—7---5—5---3--3-----------------3-5------3-2-0----------------|  
A|---------------------3----------3-------------------3-----------|
E|----------------------------------------------------------------|

G|----/5----/5------/5---5-5-5-0-------------------------/5-/5-/5-|
D|-7—7---5—5---3--3-----------------3-5------3-2-0----------------|  
A|---------------------3----------3-------------------3-----------|
E|----------------------------------------------------------------|

G|----/5----/5------/5---5-5-5-0-------------------------/5-/5-/5-|
D|-7—7---5—5---3--3-----------------3-5------3-2-0----------------|  
A|---------------------3----------3-------------------3-----------|
E|----------------------------------------------------------------|

[Final]

G|----------------------------------------------------------------|
D|----3--2--0-----------------------------------------------------|
A|--------------3--1--0---------3---------------------------------|
E|-------------------------3--1-----------------------------------|
Composición de John Lennon / Paul McCartney
Colaboración y revisión:
  • William Leão
15 vistas

0 comentarios

Ver todos los comentarios
00:00 / 00:00
Outros vídeos desta música
Repetir Calidad Automático
Outros vídeos desta música
00:00 / 00:00
Automático
OK