Cifra Club

Let It Be

The Beatles

Tab de batería: Principal
Já pensou em usar uma coleção de roupas do Cifra Club? Responda as perguntas abaixo e nos ajude nessa missão! →
LET IT BE GUITAR SOLO (ORIGINAL)

e---------------------------------------------------------------------------
B---------------------------------------------------------------------------
G---------------------------------------------------------------------------
D---------------------------------------------------------5--7(5)-----------
A--5(7)5--3--------3-3---5(7)5--3---5-5 --------3----5/7----------7(5)--3~~-
E------------3(5)--------------------------3(5)---5-------------------------

e----------------------------------------------------------------------
B---------------------------8--10--8-----------------------------------
G-------------------5--7/9-----------9---7------7(5)-------------------
D-------5-5----5--7------------------------10---------7--5-------------
A--5(7)------7----------------------------------------------7--5---3~~-
E----------------------------------------------------------------------

e--------------------------------------------------------------------------
B------------------------------------------------------8--10(8)------------
G---------------------------7/9--7--5(7)----------7(9)----------9(7)-------
D------------------5/7---5---------------7--5(7)----------------------10---
A---------5/7---3----------------------------------------------------------
E--3(5)--------------------------------------------------------------------

e------------------------------10/12--10--8-------------------------------
B-----------10/13---10(8)--------------------10--8----10(8)---------------
G-------5/9---------------9-------------------------9-------9/7--5(7)-5~~-
D--5(7)-------------------------------------------------------------------
A-------------------------------------------------------------------------
E-------------------------------------------------------------------------
Composición de John Lennon / Paul McCartney
Colaboración y revisión:
  • Jonathan Manique
1.465 vistas

0 comentarios

Ver todos los comentarios
00:00 / 00:00
Outros vídeos desta música
Repetir Calidad Automático
Outros vídeos desta música
00:00 / 00:00
Automático
OK