Cifra Club

Let's Dance

The Beatles

Tab de bajo: Principal
reproducciones 404
(DRUMS INTRO)

  00:03

  t=176
G|---------------------------------|---------------------------------|
D|---------------------------------|---------------------------------|
A|---------------------------------|---------------------------------|
E|---------------------------------|---------------------------------|

G|---------------------------------|---------------------------------|
D|---------------------------------|---------------------------------|
A|---------------------------------|---------------------------------|
E|---------------------------------|---------------------------------|

(VERSE)

  00:08

G|---------------------------------|---------------------------------|
D|---------------------------------|---------------------------------|
A|---------------------------------|---------------------------------|
E|---------------------------------|---------------------7---7-------|

G|---------------------------------|---------------------------------|
D|---------------------------------|---------------------------------|
A|-7-------------------------------|---------------------------------|
E|---------------------------------|---------------------------------|

(CHORUS)

  00:14

G|---------------------------------|---------------------------------|
D|---------------------------------|-7-------------------------------|
A|---------9-------7-------9-------|---------9-------7-------9-------|
E|-5-------------------------------|---------------------------------|

G|---------------------------------|---------------------------------|
D|---------------------------------|---------------------------------|
A|---------7-------4-------7-------|---------7-------4-------7-------|
E|-0-------------------------------|-0-------------------------------|

G|---------------------------------|---------------------------------|
D|---------6---------------6-------|---------------------------------|
A|-----------------9---------------|---------7-------4-------7-------|
E|-7-------------------------------|-5-------------------------------|

G|---------------------------------|---------------------------------|
D|---------6---------------6-------|---------------------------------|
A|-----------------9---------------|---------7-------4-------7-------|
E|-7-------------------------------|-5-------------------------------|

G|---------------------------------|---------------------------------|
D|---------------------------------|---------------------------------|
A|---------4-------2-------4-------|---------4-------2-------4-------|
E|-0-------------------------------|-0-------------------------------|

G|---------------------------------|---------------------------------|
D|---------------------------------|---------------------------------|
A|---------4-------2-------4-------|---------4-------2-------4-------|
E|-0-------------------------------|-0-------------------------------|

(VERSE)

  00:30

G|---------------------------------|---------------------------------|
D|---------------------------------|---------------------------------|
A|-7-------------------------------|---------------------------------|
E|---------------------------------|---------------------7---7-------|

G|---------------------------------|---------------------------------|
D|---------------------------------|---------------------------------|
A|-7-------------------------------|---------------------------------|
E|---------------------------------|---------------------------------|

(CHORUS)

  00:36

G|---------------------------------|---------------------------------|
D|---------------------------------|-7-------------------------------|
A|---------9-------7-------9-------|---------9-------7-------9-------|
E|-5-------------------------------|---------------------------------|

G|---------------------------------|---------------------------------|
D|---------------------------------|---------------------------------|
A|---------7-------4-------7-------|---------7-------4-------7-------|
E|-0-------------------------------|-0-------------------------------|

G|---------------------------------|---------------------------------|
D|---------6---------------6-------|---------------------------------|
A|-----------------9---------------|---------7-------4-------7-------|
E|-7-------------------------------|-5-------------------------------|

G|---------------------------------|---------------------------------|
D|---------6---------------6-------|---------------------------------|
A|-----------------9---------------|---------7-------4-------7-------|
E|-7-------------------------------|-5-------------------------------|

G|---------------------------------|---------------------------------|
D|---------------------------------|---------------------------------|
A|---------4-------2-------4-------|---------4-------2-------4-------|
E|-0-------------------------------|-0-------------------------------|

G|---------------------------------|---------------------------------|
D|---------------------------------|---------------------------------|
A|---------4-------2-------4-------|---------4-------2-------4-------|
E|-0-------------------------------|-0-------------------------------|

KEYBOARD SOLO

  00:52

G|---------------------------------|---------------------------------|
D|---------------------------------|---------------------------------|
A|-7-------------------------------|---------------------------------|
E|---------------------------------|---------------------------------|

G|---------------------------------|---------------------------------|
D|---------------------------------|---------------------------------|
A|---------------------------------|---------------------------------|
E|---------------------------------|---------------------------------|

G|---------------------------------|---------------------------------|
D|-------------------------7-------|-7-------------------------------|
A|---------4-------7---------------|---------7-------4-------7-------|
E|-5-------------------------------|---------------------------------|

G|---------------------------------|---------------------------------|
D|---------------------------------|---------------------------------|
A|---------4-------2-------4-------|---------4-------2-------4-------|
E|-0-------------------------------|-0-------------------------------|

G|---------------------------------|---------------------------------|
D|---------6---------------6-------|---------------------------------|
A|-----------------9---------------|---------7-------4-------7-------|
E|-7-------------------------------|-5-------------------------------|

G|---------------------------------|---------------------------------|
D|---------6---------------6-------|---------------------------------|
A|-----------------9---------------|---------7-------4-------7-------|
E|-7-------------------------------|-5-------------------------------|

G|---------------------------------|---------------------------------|
D|---------------------------------|---------------------------------|
A|---------4-------2-------4-------|---------4-------2-------4-------|
E|-0-------------------------------|-0-------------------------------|

G|---------------------------------|---------------------------------|
D|---------------------------------|---------------------------------|
A|---------4-------2-------4-------|---------4-------2-------4-------|
E|-0-------------------------------|-0-------------------------------|

GUITAR SOLO

  01:14

G|---------------------------------|---------------------------------|
D|---------------------------------|---------------------------------|
A|-7-------------------------------|---------------------------------|
E|---------------------------------|---------------------------------|

G|---------------------------------|---------------------------------|
D|---------------------------------|---------------------------------|
A|---------------------------------|---------------------------------|
E|---------------------------------|---------------------------------|

G|---------------------------------|---------------------------------|
D|-------------------------7-------|-------------------------4-------|
A|---------4-------7---------------|---------4-------7---------------|
E|-5-------------------------------|-5-------------------------------|

G|---------------------------------|---------------------------------|
D|-------------------------2-------|---------------------------------|
A|-----------------2---------------|-----------------4-------2-------|
E|-0-------4-----------------------|-0-------4-----------------------|

G|---------------------------------|---------------------------------|
D|---------9-------7---------------|-----------------4-------7-------|
A|---------------------------------|---------7-----------------------|
E|-7-------------------------------|-5-------------------------------|

G|---------------------------------|---------------------------------|
D|---------6-----------------------|-----------------4-------7-------|
A|-----------------9---------------|---------7-----------------------|
E|-7-------------------------------|-5-------------------------------|

G|---------------------------------|---------------------------------|
D|-------------------------2-------|-------------------------2-------|
A|-----------------2---------------|-----------------2---------------|
E|-0-------4-----------------------|-0-------4-----------------------|

G|---------------------------------|---------------------------------|
D|-------------------------2-------|-------------------------2-------|
A|-----------------2---------------|-----------------2---------------|
E|-0-------4-----------------------|-0-------4-----------------------|

(VERSE)

  01:36

G|---------------------------------|---------------------------------|
D|---------------------------------|---------------------------------|
A|-7-------------------------------|---------------------------------|
E|---------------------------------|---------------------7---7-------|

G|---------------------------------|---------------------------------|
D|---------------------------------|---------------------------------|
A|-7-------------------------------|---------------------------------|
E|---------------------------------|---------------------------------|

(CHORUS)

  01:41

G|---------------------------------|---------------------------------|
D|---------------------------------|-7-------------------------------|
A|---------9-------7-------9-------|---------9-------7-------9-------|
E|-5-------------------------------|---------------------------------|

G|---------------------------------|---------------------------------|
D|---------------------------------|---------------------------------|
A|---------7-------4-------7-------|---------7-------4-------7-------|
E|-0-------------------------------|-0-------------------------------|

G|---------------------------------|---------------------------------|
D|---------6---------------6-------|---------------------------------|
A|-----------------9---------------|---------7-------4-------7-------|
E|-7-------------------------------|-5-------------------------------|

G|---------------------------------|---------------------------------|
D|---------6---------------6-------|---------------------------------|
A|-----------------9---------------|---------7-------4-------7-------|
E|-7-------------------------------|-5-------------------------------|

G|---------------------------------|---------------------------------|
D|---------------------------------|---------------------------------|
A|---------4-------2-------4-------|---------4-------2-------4-------|
E|-0-------------------------------|-0-------------------------------|

G|---------------------------------|---------------------------------|
D|---------------------------------|---------------------------------|
A|---------4-------2-------4-------|---------4-------2-------4-------|
E|-0-------------------------------|-0-------------------------------|

(VERSE)

  01:57

G|---------------------------------|---------------------------------|
D|---------------------------------|---------------------------------|
A|-7-------------------------------|---------------------------------|
E|---------------------------------|---------------------7---7-------|

G|---------------------------------|---------------------------------|
D|---------------------------------|---------------------------------|
A|-7-------------------------------|---------------------------------|
E|---------------------------------|---------------------------------|

(CHORUS)

  02:03

G|---------------------------------|---------------------------------|
D|---------------------------------|-7-------------------------------|
A|---------9-------7-------9-------|---------9-------7-------9-------|
E|-5-------------------------------|---------------------------------|

G|---------------------------------|---------------------------------|
D|---------------------------------|---------------------------------|
A|---------7-------4-------7-------|---------7-------4-------7-------|
E|-0-------------------------------|-0-------------------------------|

G|---------------------------------|---------------------------------|
D|---------6---------------6-------|---------------------------------|
A|-----------------9---------------|---------7-------4-------7-------|
E|-7-------------------------------|-5-------------------------------|

G|---------------------------------|---------------------------------|
D|---------6---------------6-------|---------------------------------|
A|-----------------9---------------|---------7-------4-------7-------|
E|-7-------------------------------|-5-------------------------------|

G|---------------------------------|---------------------------------|
D|---------------------------------|---------------------------------|
A|---------4-------2-------4-------|---------4-------2-------4-------|
E|-0-------------------------------|-0-------------------------------|

G|---------------------------------|---------------------------------|
D|---------------------------------|---------------------------------|
A|---------4-------2-------4-------|---------4-------2-------4-------|
E|-0-------------------------------|-0-------------------------------|

(OUTRO)

  02:19

G|---------------------------------|---------------------------------|
D|---------------------------------|---------------------------------|
A|---------4-------2-------4-------|---------4-------2-------4-------|
E|-0-------------------------------|-0-------------------------------|

G|---------------------------------|---------------------------------|
D|---------------------------------|---------------------------------|
A|---------4-------2-------4-------|---------4-------2-------4-------|
E|-0-------------------------------|-0-------------------------------|

G|---------------------------------|---------------------------------|
D|---------------------------------|---------------------------------|
A|---------4-------2-------4-------|---------4-------2-------4-------|
E|-0-------------------------------|-0-------------------------------|

G|---------------------------------|---------------------------------|
D|---------------------------------|---------------------------------|
A|---------4-------2-------4-------|---------4-------2-------4-------|
E|-0-------------------------------|-0-------------------------------|

G|---------------------------------|---------------------------------|
D|---------------------------------|---------------------------------|
A|---------4-------2-------4-------|---------4-------2-------4-------|
E|-0-------------------------------|-0-------------------------------|
                                                             (FADE OUT)
Compositor: Jim Lee

0 comentarios

mostrar más comentarios

¿Conseguiste tocar?

0 tocaron 0 aún no

¡Graba un vídeo tocando Let's Dance y envianoslo!

00:00 / 00:00
outros vídeos desta música
repetir qualidade Automático
Outros vídeos desta música
00:00 / 00:00
Automático
OK