Cifra Club

Love Me Do

The Beatles

Cifrado: Principal (guitarra y guitarra eléctrica)
Selo Cifra Club: esta cifra foi revisada para atender aos critérios oficiais da nossa Equipe de Qualidade.
tono: G
[Intro] G  C  G  C
        G  C  G

[Tab - Intro]

Parte 1 de 3
E|-13-12-10-----------13-13-13-12-12-12-10--|
B|------------------------------------------|
G|----------12-12-12------------------------|
D|------------------------------------------|
A|------------------------------------------|
E|------------------------------------------|

Parte 2 de 3
E|-----------13-12-10-----------------------|
B|------------------------------------------|
G|-12-12-12-----------12-12-12--------------|
D|------------------------------------------|
A|------------------------------------------|
E|------------------------------------------|

Parte 3 de 3
E|------------------------------------------|
B|-13-12--------------------13-12-----------|
G|-------12--12-12--12-12---------12--------|
D|------------------------------------------|
A|------------------------------------------|
E|------------------------------------------|

[Primeira Parte]

[Tab - Riff 1]

Parte 1 de 2
E|-13-12-10-----------13-13-13-12-12-12-10--|
B|------------------------------------------|
G|----------12-12-12------------------------|
D|------------------------------------------|
A|------------------------------------------|
E|------------------------------------------|

Parte 2 de 2
E|------------------------------------------|
B|------------------------------------------|
G|-12-12-12---------------------------------|
D|------------------------------------------|
A|------------------------------------------|
E|------------------------------------------|

[Tab - Riff 2]

E|------------------------------------------|
B|------------------------------------------|
G|------------------------------------------|
D|------------------------------------------|
A|------------------------------------------|
E|-3-2-0------------------------------------|

 G             C    
Love, love me do
      G          C
You know I love you
     G           C    
I'll always be true
                   G           
So please love me do
C         G         C
  Oh-oh, love me do

 G             C    
Love, love me do
      G          C
You know I love you
     G           C    
I'll always be true
                   G  Riff 1         
So please love me do
C         G         Riff 2
  Oh-oh, love me do

[Refrão]

 D                C        G
Someone to love, somebody new
 D                C            G
Someone to love, someone like you

[Primeira Parte]

 G             C    
Love, love me do
      G          C
You know I love you
     G           C    
I'll always be true
                   G  Riff 1         
So please love me do
C         G         Riff 2
  Oh-oh, love me do

[Solo] D  C  G
       D  C  G

[Tab - Solo]

Parte 1 de 2
E|------------------------------------------|
B|-10--10-8-7--8--6-5-----------------------|
G|--------------------7~--------------------| (2x)
D|------------------------------------------|
A|------------------------------------------|
E|------------------------------------------|

Parte 2 de 2
E|-----------------8-7----------------------|
B|-8--8-8--8-8--8-------8--8-8--8-----------|
G|------------------------------------------|
D|------------------------------------------|
A|------------------------------------------|
E|------------------------------------------|

[Final]

 G             C    
Love, love me do
      G          C
You know I love you
     G           C    
I'll always be true
                   G  Riff 1         
So please love me do
C         G        
  Oh-oh, love me do
      G         C
Yes, love me do
        G       C
Oh-oh, love me do
Otros videos de esta canción
    116.895 exhibiciones
      • ½ Tono
      • A
      • Bb
      • B
      • C
      • Db
      • D
      • Eb
      • E
      • F
      • F#
      • G
      • Ab
    • Agregar a la lista

    Afinação da cifra

    Afinador online

      Ops (: Contenido disponible solo en portugués.
      OK