Cifra Club

Michelle

The Beatles

Chords: Principal (acoustic and electric guitars)
tone: Fm (chord shape for key of Cm) Capo on fret 5
[Intro] Cm  Cm/B  Cm/Bb  Cm/A  Ab7M  G

[Tab - Riff Intro]

(Solo Com Capotraste)

[Tab - Intro]

E|----3---3---3---3----3-1---1/3-3-----3/---|
B|----4---4---5---5----1-1-4-1/3-3---0------|
G|-/5---4---3---2---1--1-----------0--------|
D|------------------------------------------|
A|------------------------------------------|
E|------------------------------------------|

[Refrão 1]

 C       Fm7   
Michelle,    ma belle
  Bb6                 D#°/A       G     D#°/A  G
These are words that go together well, my  Michelle

 C       Fm7   
Michelle,    ma belle
 Bb6               D#°/A      F#°   G       
Sont des mots qui vont très bien ensemble
  F#°        G
Très bien ensemble

[Primeira Parte]

   Cm                                 
I love you, I love you, I love you
Eb7                       Ab
    That's all I want to say
G                 Cm
  Until I find a way

( Riff Intro )

[Ponte]

        Cm     Cm/B  Cm/Bb    Cm/A     Ab7M         G
I will say the only words I know that you'll understand

[Refrão 2]

 C       Fm7   
Michelle,    ma belle
 Bb6               D#°/A      F#°   G       
Sont des mots qui vont très bien ensemble
  F#°        G
Très bien ensemble

[Segunda Parte]

   Cm  
I need to , I need to , I need to 
Eb7                     Ab
    I need to make you see
G                      Cm
  Oh what you mean to me

( Riff Intro )

[Ponte 2]

   Cm    Cm/B   Cm/Bb  Cm/A      Ab7M       G
Until I do I'm hoping you will know what I mean

C    Fm7  Bb6 
  I love you

[Solo] D#°/A  G  F#°  G

[Tab - Solo]

(Solo Sem Capotraste)

[Tab - Solo]

Parte 1 de 2
E|------------------------------------------|
B|------------------------------------------|
G|-------------5-6/-------------------------|
D|------5-7--7-------6-5--5-6-8-------------|
A|-8--8--------------------------6-8--------|
E|------------------------------------------|
  
Parte 2 de 2
E|------------------------------------------|
B|------------------------------------------|
G|------------------------------------------|
D|----5-6--------6---------------5-6--------|
A|--8-----5-7--5---8-7-----5-7-8------------|
E|-----------------------8------------------|

[Terceira Parte]

   Cm                                  
I want you, I want you, I want you
Eb7                      Ab
    I think you know by now
G                      Cm
  I'll get to you somehow

( Riff Intro )

[Ponte]

   Cm    Cm/B   Cm/Bb   Cm/A   Ab7M         G
Until I do I'm telling you so you'll understand

[Refrão 1]

 C       Fm7   
Michelle,    ma belle
 Bb6               D#°/A      F#°   G       
Sont des mots qui vont très bien ensemble
  F#°        G
Très bien ensemble

( Riff Intro )

[Ponte]

        Cm     Cm/B  Cm/Bb    Cm/A     Ab7M         G
I will say the only words I know that you'll understand

       C       
My Michelle

[Solo Final] Fm7  Bb6  D#°/A  F#°/A    G  F#°  G
             C  Fm7  Bb6

[Tab - Solo Final]

Parte 1 de 3
E|------------------------------------------|
B|------------------------------------------|
G|-------------5-6/-------------------------|
D|------5-7--7-------6-5--5-6-8-------------|
A|-8--8--------------------------6-8--------|
E|------------------------------------------|
  
Parte 2 de 3
E|------------------------------------------|
B|------------------------------------------|
G|------------------------------------------|
D|----5-6--------6---------------5----------|
A|--8-----5-7--5---8-7-----5-7-8------------|
E|-----------------------8------------------|

Parte 3 de 3
E|------------------------------------------|
B|------------------------------------------|
G|-------------5-6/-------------------------|
D|------5-7--7-------6-5--5-6-8-------------|
A|-8--8--------------------------6----------|
E|------------------------------------------|
00:00 / 00:00
Other videos of this song
Repeat
Other videos of this song
Composed by John Lennon / Paul McCartney
103.892 views
  • Simplify chords
    • ½ Tone
    • Am
    • Bbm
    • Bm
    • Cm
    • C#m
    • Dm
    • Ebm
    • Em
    • Fm
    • F#m
    • Gm
    • G#m
  • Add to list
    00:00 / 00:00
    OK