Cifra Club

Michelle

The Beatles

Tablatura: Principal (guitarra)
reproducciones 52.374
Tono: Ab (con acordes en la forma de D#) Capo en 5ª casa
Acordes utilizados (capotraste na 5ª casa)

A|--3----3----5----3----2--|--5----8--|--3---------4----3--|
E|--3----1----5----3----1--|--4----7--|--4----4----4----3--|
C|--0----0----1----3----2--|--5----8--|--5----6----5----4--|
G|--0----2----1----3----1--|--4----7--|--5----5----6----5--|
D|--2----3----3----1-------|----------|--3----6----6----5--|
A|--3---------1------------|----------|------------4----3--|
   G/D  C/G Fm7/A Bb6  F#°           Cm  Eb7   G#   G5

Intro:


A|-----3----3----3----3---3--1-----2/3--2/3--2/3--2/3--|
E|-----4----4----4----4---4--1--4--2/3--2/3--2/3--2/3--|
C|---5----4----3----2---1----1-------------------------|
G|-----------------------------------------------------|
D|-----------------------------------------------------|
A|-----------------------------------------------------|


C/G         Fm7/A   Bb6                 F#°    G/D   F#°   G/D
Michelle, ma belle, these are words that go together well, my Michelle
C/G         Fm7/A   Bb6                  F#°         G/D   F#°   G/D
Michelle, ma belle, sont des mots qui vont très bien ensemble, très bien

Cm                                  Eb7                  G#
I love you, I love you, I love you, that's all I want to say
G5             Cm
until I find a way
(Intro)                                         G/D
I will say the only words I know that you'll understand.

C/G         Fm7/A   Bb6                 F#°          G/D   F#°   G/D
Michelle, ma belle, sont des mots qui vont très bien ensemble, très bien

Cm                                  Eb7                  G#
 I need to , I need to , I need to I need to make you see
G5             Cm
oh what you mean to me
(Intro)                                    G/D
until I do I'm hoping you will know what I mean

C/G         Fm7/A   Bb6                  F#°         G/D   F#°   G/D
I love you

Solo:
  
        C/G             Fm7/A     Bb6                 F#°
A|----------------------------------------------------|
E|----------------------------------------------------|
C|----------------------------------------------------|
G|-------------2--3--5--6---1---0---0--1--3-----------|
D|----3--3--5---------------------------------1----3--|
A|----------------------------------------------------|

                     G/D  F#°       G/D
A|---------------------------------------------------------|
E|---------------------------------------------------------|
C|---------------------------------------------------------|
G|-----0--1---------------1--------------------------------|
D|--3--------0----2---0-------3---2-----------2--3--5--6---|
A|--------------------------------------3--5---------------|

Cm                                  Eb7                  G#
I want you, I want you, I want you. I think you know by now
G5             Cm
I'll get to you somehow.
(Intro)                                    G/D
Until I do I'm telling you so you'll understand.

C/G         Fm7/A   Bb6                  F#°         G/D   F#°   G/D
Michelle, ma belle, sont des mots qui vont très bien ensemble, très bien
(Intro)                                         G/D
I will say the only words I know that you'll understand, my Michelle


Solo (2x):
  
        C/G             Fm7/A     Bb6                 F#° 
A|----------------------------------------------------|
E|----------------------------------------------------|
C|----------------------------------------------------|
G|-------------2--3--5--6---1---0---0--1--3-----------|
D|----3--3--5---------------------------------1----3--|
A|----------------------------------------------------|

                G/D  F#°        G/D
A|---------------------------------------------------------|
E|---------------------------------------------------------|
C|---------------------------------------------------------|
G|-----0--1---------------1--------------------------------|
D|--3--------0----2---0-------3---2-----------2--3--5--3---|
A|--------------------------------------3--5---------------|

0 comentarios

    mostrar más comentarios

    ¿Conseguiste tocar?

    23tocaron2aún no

    ¡Graba un vídeo tocando Michelle y envianoslo!

    00:00 / 00:00
    outros vídeos desta música
    repetirqualidadeAutomático
    Outro vídeos desta música
      00:00 / 00:00
      OK