Cifra Club

Aprenda

Michelle

The Beatles

Tab de bajo: Principal
INTRO
|---------9--|--1O---------|--------|---------|
|--1O--------|---------1O--|--------|--1O-----|
|------------|-------------|--8-----|---------|
|------------|-------------|--------|---------|

A
   michelle              ma belle     these are...    go together      well...
|------------------|---------------|---------------|----------------|-----------|
|--------1O-----7--|--8------------|--------8------|----------------|-----------|
|--8---------------|--------8------|--6------------|--5-------------|-----------|
|------------------|---------------|---------------|--------7-------|--8-----7--|

|-----------------|
|-----------------|
|--------5-----7--|
|--8--------------|

B
   michelle             ma  belle      sont des...      vont tre's...        
|------------------|----------------|----------------|------------------|
|*-----------------|----------------|--------8-------|------------------|
|*--8--------------|--------8-------|--6-------------|--5---------------|
|---------8-----5--|--6-------------|----------------|--------7---------|

|-----------|-----------------|
|-----------|-----------------|
|-----------|--------5-----7--|
|--8-----7--|--8--------------|

C %
   love you...       love you          there's all...      say
   need you...       need to             I need to...      see
   want you...       want you            I think you...    now 
|-----------------|-----------------|-------------------|-----------------|
|-----------------|-----------------|--6----------------|-----------------|
|--8-----------6--|--8-----------6--|------9---8---6----|------6---8------|
|--------8--------|--------8--------|-------------------|--9-----------9--|

   until I...                             say the...       words I...    you'll...
   oh what...                                 I do...      hoping...     know...
   I'll get...                                I do...      telling...    you'll...   TO CODA
|------------------|-------------------|---------9------|--1O---------|-------------|
|------------------|----------------8--|--1O------------|---------1O--|-------------|
|-----------7------|--8---1O---11------|----------------|-------------|--8----------|
|--8---1O-------8--|-------------------|----------------|-------------|-------------|

1____________  2___________
                mean...
|------------|---------------|
|--1O--------|*--1O-----1O---|
|------------|*--------------|
|------------|---------------|

D
   I love you         
|------------------|-----------|-----------|-----------|-----------|-----------------|
|--------1O-----7--|--8--------|--------8--|-----------|-----------|-----------------|
|--8---------------|--------8--|--6--------|--5--------|-----------|-----------------|
|------------------|-----------|-----------|--------7--|--8-----7--|--8-----8-----8--|

CODA
   stand
|-------------|
|--1O-----1O--|
|-------------|
|-------------|

E
   michelle               ma belle       sont...     vont...
|------------------|------------------|-----------|---------------|---------------|
|--------1O-----7--|--8---------------|--------8--|---------------|---------------|
|--8---------------|---------8-----5--|--6--------|--5------------|---------------|
|------------------|------------------|-----------|--------7---7--|--8-----7---7--|

|---------------|
|---------------|
|---------------|
|--8-----8---8--|

F
   say the...       I know..   you'll...
|---------9---|--1O---------|--------------|-------------|------------------|-----------|
|--1O---------|---------1O--|--------------|--1O-----1O--|*--------------7--|--8--------|
|-------------|-------------|--8-----------|-------------|*--8--------------|--------8--|
|-------------|-------------|--------------|-------------|---------8--------|-----------|

|-----------|-----------|-----------|------------------|
|--------8--|-----------|-----------|-----------------*|
|--6--------|--5--------|-----------|--------5-----7--*|
|-----------|--------7--|--8-----7--|--8---------------|




_______________________________________________________
Contribuição: valdir felix junior(paulislivefaclube@ig.com.br)
Composição de John Lennon / Paul McCartney
443 reproducciones

0 comentarios

Ver todos os comentários
00:00 / 00:00
outros vídeos desta música
repetir qualidade Automático
Outros vídeos desta música
00:00 / 00:00
Automático
OK