Cifra Club

Norwegian Wood

The Beatles

Tablatura: Principal (guitarra)
Tom: E (con acordes en la forma de D) Capo en 2ª casa
[Intro]
 
     D
E|-----2-2-2-2-----------------2-2-2-2-------------------|
B|-3---3-3-3-3---3-----3-------3-3-3-3------3------------|
G|-2---2-2-2-2---2h4p2-0---2---2-2-2-2--0---0---2--------|
D|-0-----------------------4------------2-------4--------|
A|-------------------------------------------------------|
E|-------------------------------------------------------|
           
E|-----2-2-2-2-------------------2-2-2-2-----2-2-2-2-----|
B|-3---3-3-3-3-------3-------3---3-3-3-3-----3-3-3-3-----|
G|-2---2-2-2-2-------0-------0h2-2-2-2-2-2---2-2-2-2-----|
D|-0---------------------0---0-----------0---------------|
A|---------------3-------2---0---------------------------|
E|-------------------------------------------------------|

[Refrão]

     Dm
E|-1---1-1-1-1---1---0-0-0-0--0--------------------------|
B|-3---3-3-3-3---3---3-3-3-3--3---3-3-3-3----------------|
G|-2---2-2-2-2---2---0-0-0-0--0---2-2-2-2---0---2---0----|
D|-0-------------0------------0-------------0---3---0----|
A|-0-------------0------------0--------------------------|
E|-------------------------------------------------------|
  
     G
E|-3---3-3-3-3-----3-3-3-3-------3-3-3-3-----3-3-3-3-----|
B|-3---3-3-3-3-----3-3-3-3-------3-3-3-3-----3-3-3-3-----|
G|-0---0-0-0-0-----0-0-0-0-------0-0-0-0-----0-0-0-0-----|
D|-0---0-0-0-0-0---0-0-0-0-------0-0-0-0-0---0-0-0-0-----|
A|-2-----------------------------------------------------|
E|-3-------------------------3---------------------------|

     Dm
E|-1---1-1-1-1---1---0-0-0-0---0-------------------------|
B|-3---3-3-3-3---3---3-3-3-3---3---3-3-3-3---------------|
G|-2---2-2-2-2---2---0-0-0-0---0---2-2-2-2---0---2---0---|
D|-0-------------0-------------0-------------0---3---0---|
A|-0-------------0-------------0-------------------------|
E|-------------------------------------------------------|

     Em7                         A7
E|-0---0-0-0-0-------0-0-0-0---0---0-0-0-0---0---0-0-0-0-|
B|-3---3-3-3-3-------3-3-3-3---2---2-2-2-2---2---2-2-2-2-|
G|-0---0-0-0-0-------0-0-0-0---0---0-0-0-0---0---0-0-0-0-|
D|-2---2-2-2-2---2-------------2---2-2-2-2---2---2-2-2-2-|
A|-2-------------2-------------0-------------0-----------|
E|-------------------------------------------------------|

[Final]

             D
E|-------------------------------------------------------|
B|-3---3-3-3-3---3---3---3-------3-3-3-3-------3---------|
G|-2---2-2-2-2---2h4-2---0---2---2-2-2-2---0---0---2-----|
D|-0-------------------------4-------------2-------4-----|
A|-------------------------------------------------------|
E|-------------------------------------------------------|
          
E|-------------------------------------------------------|
B|-3---3-3-3-3-------3-------3---------------------------|
G|-2---2-2-2-2-------0-------2---------------------------|
D|-0---------------------0---0---------------------------|
A|---------------3-------2---0---------------------------|
E|-------------------------------------------------------|

[Cítara]

E|-5--5/7-5-----------------------||---------------------|
B|----------8-7--5-8-7------8-----||-----8---------------|
G|---------------------7--5---4-2-||-4/5---4-2-----------|
D|--------------------------------||---------------------|
A|--------------------------------||---------------------|
E|--------------------------------||---------------------|

E|---------------------------3---------------------------|
B|-----8---6-----5-----3---------------------------------|
G|-4/5---4-----------------------------------------------|
D|-------------------------------------------------------|
A|-------------------------------------------------------|
E|-------------------------------------------------------|

E|-------------------5--------8----||---||---||----------|
B|-6-----5-----3--------2--4-------||---||---||----------|
G|---------------------------------||---||---||----------|
D|---------------------------------||---||---||----------|
A|---------------------------------||---||---||----------|
E|-------------------------------5-||-5-||-5-||-5--------|

D
I once had a girl

Or should I say

She once had me


She showed me her room

Isn't it good?

Norwegian wood


Dm                                                  G
She asked me to stay and she told me to sit anywhere
Dm                                                   Em7   A7
So I looked around and I noticed there wasn't a chair

D
I sat on a rug

Biding my time

Drinking her wine


We talked until two

And then she said

It's time for bed

Dm                                                        G
She told me she worked in the morning and started to laugh
Dm                                                      Em7   A7
I told her I didn't and crawled off to sleep in the bath

D
And when I awoke

I was alone

This bird has flown


So I lit a fire

Isn't it good?

Norwegian wood
reproducciones 13.614
Acordes para:
    Composição: Lennon / McCartney Colaboración y revision:
    • Matheus West
    • gabriel

    0 comentarios

    mostrar más comentarios

    ¿Conseguiste tocar?

    5 tocaron 1 aún no

    ¡Graba un vídeo tocando Norwegian Wood y envianoslo!

    00:00 / 00:00
    outros vídeos desta música
    repetir qualidade Automático
    Outros vídeos desta música
    00:00 / 00:00
    Automático
    OK