Cifra Club

Something

The Beatles

Cifrado: Principal (guitarra y guitarra eléctrica)
Quer fazer aulas de música com a gente? Responda essas perguntas
e nos ajude nesse projeto! →
tono: Em
[Intro] F  Eb  G/D  C

    F            Eb  G/D C
E|----------------------------------------------------|
B|-10-b13r12p10--11--12--13---------------------------|
G|----------------------------------------------------|
D|----------------------------------------------------|
A|----------------------------------------------------|
E|----------------------------------------------------|

[1ª Parte]

   C7M              C7
E|------------------0---------------------------------|
B|-----0-------0----1------------------1--------------|
G|-----0-------0----3----------------3----------------|
D|---2---2---2---2--2--------------2------------------|
A|-3-------3--------3----------3----------------------|
E|----------------------------------------------------|

   F                   C/E     D       D7     
E|-1---------------------------2-------------2--------|
B|-1----------------1-------1--3-----------1----------|
G|-2--------------2-------0----2---------2------------|
D|-3----------3--------2-------0-------0--------------|
A|----------------------------------------------------|
E|----------------------------------------------------|

    G         Am         G/B
E|----------------------------------------------------|
B|----------------------------------------------------|
G|--3/4--4----4/5--5-----5/7--------------------------|
D|--4/5----5--5/7-----7--7/9--------------------------|
A|----------------------------------------------------|
E|----------------------------------------------------|
  C                        C7M
 Something in the way she moves
C7                           F    C/E
  Attracts me like no other lover
D                   D7      G      Am  G/B
  Something in the way she woos me

[2ª Parte]

E|----------------------------------------------------|
B|----------------------------------------------------|
G|--7-7-7/9~---------7/9~\----------------------------|
D|----------------------------------------------------|
A|----------------------------------------------------|
E|----------------------------------------------------|

E|----------------------------------------------------|
B|----------------------------------------------------|
G|--5h7p5~-----------7/9--7\5~\-----------------------|
D|----------------------------------------------------|
A|----------------------------------------------------|
E|----------------------------------------------------|

   Am                         Am7M
I don't want to leave her now
       Am7                D7(9)
 You know I believe, and how

( F  Eb  G/D  C )

[1ª Parte]
  C                           C7M
 Somewhere in her smile she knows
C7                            F    C/E
  That I don't need no other lover
  D                 D7         G      Am  G/B
 Something in her style that shows me

[2ª Parte]

   Am                         Am7M
I don't want to leave her now
       Am7                D7(9)
 You know I believe, and how

( F  Eb  G/D  A )

    F           Eb  G/D C
E|----------------------------------------------------|
B|-10-b13r12p10-11--12--12/14~------------------------|
G|----------------------------------------------------|
D|----------------------------------------------------|
A|----------------------------------------------------|
E|----------------------------------------------------|

A/E               A7M/E            F#m  F#m/E
   You're asking me will my love grow
             D   G         A5   Ab5  G5  Gb5  F5  E5
   I don't know, I don't know

A/E            A7M/E              F#m   F#m/E
   You stick around, now it may show
             D   G         C
   I don't know, I don't know

[Solo] C  C7M  C7  F
       D  D7  G  A  G/B
       Am  Am7M  Am7  D7(9)

   C           C7M
E|----------------------------------------------------|
B|--------8-------------8b10-b10r8--------------------|
G|----7h9---9~------7h9------------9~-----------------|
D|----------------------------------------------------|
A|----------------------------------------------------|
E|----------------------------------------------------|
   C7                            F
E|------------------------------b12r10-8--------------|
B|-----8/10-8-8/11-13-13-b15r13----------10~----------|
G|-7h9------------------------------------------------|
D|----------------------------------------------------|
A|----------------------------------------------------|
E|----------------------------------------------------|
                C/E       D
E|----------------------------------------------------|
B|-----13-13\-----8-8-\-------------------------------|
G|-/14---------/9-------------------------------------|
D|------------------------/7~-------------------------|
A|----------------------------------------------------|
E|----------------------------------------------------|
         D7
E|----------------------------------------------------|
B|---------7-7-b12r10-b12r10-b12r10-------------------|
G|-----6/7--------------------------------------------|
D|-9\7------------------------------------------------|
A|----------------------------------------------------|
E|----------------------------------------------------|
          G     Am       G/B
E|-----------10----------10/12-11-10------------------|
B|-b12r10\8--12-12p11\10------------------------------|
G|-----------12---------------------------------------|
D|----------------------------------------------------|
A|----------------------------------------------------|
E|----------------------------------------------------|
   Am              Am7M
E|----------------------------------------------------|
B|----------------------------------------------------|
G|-7b9r7b9r7b9r7p5~--7b9r7b9r7b9r7b9r7p5--------------|
D|----------------------------------------------------|
A|----------------------------------------------------|
E|----------------------------------------------------|
   Am7              D7(9)
E|------------------10/12-10-8/10-8-------------------|
B|----------------------------------10----------------|
G|-7b9r7b9r7p5/9-12-----------------------------------|
D|----------------------------------------------------|
A|----------------------------------------------------|
E|----------------------------------------------------|
  F             Eb G/D   C
E|----------------------------------------------------|
B|-10-b13r12p10-11-12--/13~---------------------------|
G|----------------------------------------------------|
D|----------------------------------------------------|
A|----------------------------------------------------|
E|----------------------------------------------------|

( F  Eb  G/D  C )

 C                         C7M
Something in the way she knows
C7                           F           C/E
   And all I have to do is think of her
 D                 D7         G    Am   G/B
Something in the things she shows me

[2ª Parte]

   Am                        Am7M
I don't want to leave her now
      Am7                D7(9)
You know I believe, and how

( F  Eb  G/D  A )

[Final] F  Eb  G/D  C

    F           Eb     G/D   C
E|------------------------------------------15-14-----|
B|-10-b13r12p10| —11-----12---12/14~---14--14---------|
G|----------------------------------------------------|
D|----------------------------------------------------|
A|----------------------------------------------------|
E|----------------------------------------------------|

   F             Eb G/D C
E|----------------------------------------------------|
B|-10-b13r12p10-11-12--13-----------------------------|
G|---------------------12-----------------------------|
D|---------------------14-----------------------------|
A|----------------------------------------------------|
E|----------------------------------------------------|

Composición de George Harrison
134.229 vistas
  • Simplificar cifrado
    • ½ Tono
    • Am
    • Bbm
    • Bm
    • Cm
    • C#m
    • Dm
    • Ebm
    • Em
    • Fm
    • F#m
    • Gm
    • G#m
  • Agregar a la lista

    0 comentarios

    Ver todos los comentarios
    00:00 / 00:00
    Outros vídeos desta música
    Repetir Calidad Automático
    Outros vídeos desta música
    00:00 / 00:00
    Automático
    Capítulos
    • Início
    • Tocando a música
    • Configuração dos Efeitos
    • Dicas: Uso dos Captadores, Tones e Volume
    • Tocando Solo da Introdução
    • Ensinando Solo da Introdução
    • Acordes da Primeira Parte
    • Tocando Primeira Parte
    • Ensinando Primeira Parte
    • Tocando Segunda Parte
    • Ensinando Segunda Parte
    • Tocando Solo da Introdução - Variação
    • Ensinando Solo da Introdução - Variação
    • Acordes da Terceira Parte
    • Tocando Terceira Parte
    • Ensinando Ritmo da Terceira Parte
    • Tocando Solo
    • Ensinando Solo
    • Tocando Final
    • Ensinando Final
    • Encerramento
    OK