Cifra Club

Strawberry Fields Forever

The Beatles

Cifrado: Versão 3 (guitarra y guitarra eléctrica)
tono: C
D|-------------------------------------------------------------
A|---3--3--3--3--3--3--1--0--------1--------0------------------ 
F|---4--4--4--4--4--4--2--1------2--------0------2----0-------- 
C|---5-----4-----3--3----------2--------0--------3----2-------- 
G|--------------------------------------------------3---------- 
D|-------------------------------------------------------------

E|---- 9-- 9----------------------|--------------------------------|
B|----------10---- 8--------------|--------------------------------|
G|------------------ 9-- 7-- 6----|------ 6-- 6-- 7---- 6------ 2--|
D|--------------------------------| 7-------------------------- 2--|
A| 0------------------------------|--------------------------------|
E|--------------------------------|--------------------------------|

E|--------------------------------|--------------------------------|
B|--------------------------------|---------------------------- 0--|
G|---------------- 2-- 2------ 0--|-------- 0-- 0-- 0-- 2----------|
D|---- 2-- 2-- 4-------------- 2--|---- 2---- 2-- 2----------------|
A| 0------------------------------|--------------------------------|
E|--------------------------------| 0-------------- 0--------------|

E|--------------------------------|--------------------------------|
B|--------------------------------|--------------------------------|
G|---- 0-- 0---- 0-------- 0------|-------- 3---------- 2---- 3----|
D| 2---------- 2------ 2------ 2--|---- 2------ 5 5----------------|
A|--------------------------------|--------------------------------|
E| 0-------------- 0--------------| 2-------------- 2--------------|

E|--------------------------------| 0------------------------------|
B|-------- 2-------------------- 3|-- 3---- 2-- 0---- 0 2----------|
G|---- 3-------- 3------ 3--------| 2 2------------ 3------ 3------|
D| 2-------- 2-------- 2------ 2--|-- 4------------ 2---------- 2--|
A|--------------------------------| 5------------------------------|
E| 2-------------- 2--------------|---------------- 2--------------|

E|--------------------------------|---------------------------- 9 9|
B|---------------- 2---------- 2--|------ 2------------------------|
G|-------- 3---------- 2----------| 2---- 2---- 2------------------|
D|---- 2------ 2 4-------- 4------|---- 2---- 2--------------------|
A|-------------- 5------------ 4--|-- 2-- 0---------------- 0------|
E| 2------------------------------|--------------------------------|

E|--------------------------------|--------------------------------|
B|--10-- 8---------------------- 0|---- 0------ 0------ 0---- 0----|
G|---------- 9-- 7-- 6------------| 1-- 1------ 1------ 1---- 1----|
D|---------------------- 7--------| 2-- 2------ 1------ 1-------- 0|
A|------------------------ 0------|--------------------------------|
E|--------------------------------| 0-------------- 0------------ 0|

E|--------------------------------|--------------------------------|
B|-- 0----------------------------|---------------- 2 0------------|
G|-- 1------ 2------ 1------------|-- 2-- 2-- 2-- 2------ 2---- 1--|
D|-- 0---------------------- 0----|-- 2-- 2-- 2-- 2-------------- 4|
A|--------------------------------|------------------------------ 5|
E|---------------- 0--------------| 2------------ 0----------------|

E|--------------------------------|--------------------------------|
B|--------------------------------|---------------------------- 2--|
G| 2 1----------------------------|---- 2-- 2-- 2-- 1---------- 2--|
D|---- 4------ 4------ 2------ 2--|---- 4-- 4-- 4 2-- 4-- 2---- 2--|
A|--------------------------------| 5------------------------------|
E|---------------- 2------ 0------|-------------- 0----------------|

E|--------------------------------|--------------------------------|
B|-------- 0----------------------|---------------- 0--------------|
G|-- 2-- 2-- 2 1------ 2----------|---- 2-- 2-- 2-- 2-- 2-- 1-- 2--|
D|-- 2-- 2------ 4---------- 4----|---- 4-- 4-- 4 2---- 2-- 2-- 2--|
A| 0------------------------------| 5------ 5----------------------|
E|------ 4------ 2-------- 0------|-------------- 0-------- 0------|

E|--------------------------------|--------------------------------|
B|--------------------------------|------ 2---- 2 3---- 2----------|
G|---- 2-- 2----------------------|-------- 2 2-- 2---- 2------ 2--|
D|---- 4------ 4---------- 2------|-------- 2 2-- 2---- 2----------|
A| 5------------------ 4------ 4--| 0------------------------------|
E|---------------- 5--------------|--------------------------------|

E|--------------------------------|--------------------------------|
B|--------------------------------|---------------------------- 0--|
G|---------------- 2-- 2------ 0--|-------- 0-- 0-- 0-- 2----------|
D|---- 2-- 2-- 4-------------- 2--|---- 2---- 2-- 2----------------|
A| 0------------------------------|--------------------------------|
E|--------------------------------| 0-------------- 0--------------|

E|--------------------------------|--------------------------------|
B|--------------------------------|--------------------------------|
G|---- 0-- 0---- 0-------- 0------|-------- 3---------- 2---- 3----|
D| 2---------- 2------ 2------ 2--|---- 2------ 5 5----------------|
A|--------------------------------|--------------------------------|
E| 0-------------- 0--------------| 2-------------- 2--------------|

E|--------------------------------| 0------------------------------|
B|-------- 2-------------------- 3|-- 3---- 2-- 0---- 0 2----------|
G|---- 3-------- 3------ 3--------| 2 2------------ 3------ 3------|
D| 2-------- 2-------- 2------ 2--|-- 4------------ 2---------- 2--|
A|--------------------------------| 5------------------------------|
E| 2-------------- 2--------------|---------------- 2--------------|

E|--------------------------------|--------------------------------|
B|---------------- 2---------- 2--|-------- 2----------------------|
G|-------- 3---------- 2----------| 2------ 2-- 2-------------- 2--|
D|---- 2------ 2 4-------- 4------|---- 2-- 2---------- 2----------|
A|-------------- 5------------ 4--|-- 2---- 0----------------------|
E| 2------------------------------|--------------------------------|

E|--------------------------------|--------------------------------|
B|-------- 2---------- 2-------- 2|------------------------ 2------|
G|------------ 2---------- 2------| 2-- 2------------------ 2-- 2--|
D|---- 2 4-------- 4---------- 2--| 2---------- 2---------- 4------|
A|------ 5------------ 4---- 2----| 0---------------------- 5------|
E|--------------------------------|--------------------------------|

E|--------------------------------|--------------------------------|
B|---- 5-- 3----------------------|--------------------------------|
G|---- 2-------------- 2----------|--------------------------------|
D| 4-- 2------ 2-- 4-- 2----------|--------------------------------|
A|---- 4------ 2-- 0--------------|--------------------------------|
E|--------------------------------|--------------------------------|

Composición de John Lennon / Paul McCartney
Colaboración y revisión:
  • Danilo Tagliolato
221 vistas
    • ½ Tono
    • A
    • Bb
    • B
    • C
    • Db
    • D
    • Eb
    • E
    • F
    • F#
    • G
    • Ab
  • Agregar a la lista

    0 comentarios

    Ver todos los comentarios

    ¿Lograste tocar?

    0 Tocaron 0 Aún no

    ¡Graba un video tocando Strawberry Fields Forever y envíanoslo!

    00:00 / 00:00
    Outros vídeos desta música
    Repetir Calidad Automático
    Outros vídeos desta música
    00:00 / 00:00
    Automático
    OK