Cifra Club

Strawberry Fields Forever

The Beatles

Tab de bajo: Principal
intro
|-----|-----|-----|-----|
|-----|-----|-----|-----|
|-----|-----|-----|-----|
|-----|-----|-----|-----|

A
   let me...      cause...     to...                               fields
|---(3)--------|--(3)-------|-----------------------------------|-----------------------5--|
|*-------(3)---|-------(3)--|--3-----------------------------3--|--3-----------------------|
|*--(1)--------|--(1)-------|------------------(3)--------------|----------------(6)-------|
|--------------|------------|--(1)-----(4)-------------(4)------|--(1)-----(4)-------------|

                                real                    nothing to get    hung about
|-------------|--------------|----------------7------|-----------------|----------------------|
|--5-------5--|--5--------5--|--5---------5-------3--|-----1-----3-----|--5-----5-----5----5--|
|--(5)--------|---(5)--------|----(5)----------------|--(6)------------|----------(2--3--5)---|
|-------------|--------------|-----------------------|----------(1)----|--(3)-----------------|

   strawberry...   TO CODA
|---8-----7---5--|
|----------------|
|--(6)-----(6)---|
|----------------|

1________
|--3-----|
|--------|
|--------|
|--------|

B
   living...    eyes closed       misunderstanding...          see
   no one...    my tree           I mean...                    low
   always...                      but you...                   dream
|------------|-----------------|----------------------------|-------------------------------|
|--3---------|--3-----------3--|--5----------3----------O-H-|--1--------5-------3--1----O-H-|
|------------|-----------------|----------------------------|-------------------------------|
|------------|-----------------|----------------------------|-------------------------------|

   it's...         but...                  it doesn't...
   that is...   in but...                  that is...
   I think...   yes...                     that is...
|------------|--3--3-----2--------------|------------------------------------|
|--1------3--|-----------------5-----3--|--1--1---1---1---1---3--3--3--3--3--|
|------------|--------------------------|------------------------------------|
|------------|--------------------------|------------------------------------|

   me
   bad
   
|-----8--O--3--7--O--5--3-----------------|
|-(1)-----------------------(O---3---O)--*|
|-----------------------(1)--------------*|
|-----------------------------------------|

2,3___________________
|-----------|---------|
|-----------|---------|
|--1--------|--1------|
|-----------|---------|

CODA
|-----------|-----------|--------|-----------|--------|---------|
|-----------|-----------|--------|--1-----3--|--1-----|--1---O--|
|--1--------|--6-----6--|--1-----|-----------|--------|---------|
|--------3--|-----------|--------|-----------|--------|---------|

C
|-----------|----------3----------|-----------------------------|----------3---3--|-----|
|-----------|--------------1---3--|--5---1-------O---1---3------|-----------------|-----|
|--1--------|------1--------------|----------3---------------1--|--1---1----------|-----|
|------4----|--4------------------|-----------------------------|-----------------|-----|

|--------------------------------------|-----|-----|-----|-----|-----|-----|-----|-----|
|--------------------------------------|-----|-----|-----|-----|-----|-----|-----|-----|
|--5--6--5--6--5--6--5--6--5--6--5--6--|-----|-----|-----|-----|-----|-----|-----|-----|
|--------------------------------------|-----|-----|-----|-----|-----|-----|-----|-----|

D
|-----|-----|-----|-----|-----|-----|-----|-----|-----|-----|-----|-----|
|-----|-----|-----|-----|-----|-----|-----|-----|-----|-----|-----|-----|
|-----|-----|-----|-----|-----|-----|-----|-----|-----|-----|-----|-----|
|-----|-----|-----|-----|-----|-----|-----|-----|-----|-----|-----|-----|

paulislivefaclube@ig.com.br

_______________________________________________________
Contribuição: valdir felix junior(paulislivefaclube@ig.com.br)
Composición de John Lennon / Paul McCartney
421 vistas

0 comentarios

Ver todos los comentarios

¿Lograste tocar?

0 Tocaron 0 Aún no

¡Graba un video tocando Strawberry Fields Forever y envíanoslo!

00:00 / 00:00
Outros vídeos desta música
Repetir Calidad Automático
Outros vídeos desta música
00:00 / 00:00
Automático
OK