Cifra Club

The Fool On The Hill

The Beatles

Cifrado: Principal (guitarra y guitarra eléctrica)
tono: D
 D             Em
Day after day alone on a hill the
 D                                   Em
The man with the foolish grin is keeping perfectly still, But
Em              A7                  D                  Bm7
Nobody wants to know him, they can see that he's just a fool and
Em                 A7
He never gives an answer

         Dm   Bb     Dm            Bb
But the fool on the hill, sees the sun going down and the
C                       Dm              Dm     D
Eyes in his head see the world spinning round

  D              Em
Well on the way head in a cloud, the
 D                                 Em
Man of thousand voices talking perfectly loud, But
Em              A7              D                  Bm7
Nobody ever hears him, or the sound he appears to make and
Em                 A7
He never seems to notice

         Dm   Bb    Dm            Bb
But the fool on the hill sees the sun going down and the
C                        Dm             Dm     D
Eyes in his head see the world spinning round

    D               Em            D              Em

E|---------------5-7-7------7-9-10-10-10-10-10-10-9-------12-12-12-|
B|-7-7-7-7--7-8--------7-10-------------------------10-12----------|
G|-----------------------------------------------------------------|
D|-----------------------------------------------------------------|
A|-----------------------------------------------------------------|
E|-----------------------------------------------------------------|

Em              A7                 D                     Bm7
Nobody seems to like him, they can tell what he wants to do and
    Em              A7
He never shows his feelings

         Dm  Bb       Dm          Bb
But the fool on the hill sees the sun going down and the
C                        Dm              Dm    D 
Eyes in his head see the world spinning round

 D             Em        D                 Em
Oohh, oohh, oohh!       Round, round, round, round, round

E|---------------5-7-7------7-9-10-10-10-10-10-10-9-------12-12-12-|
B|-7-7-7-7--7-8--------7-10-------------------------10-12----------|
G|-----------------------------------------------------------------|
D|-----------------------------------------------------------------|
A|-----------------------------------------------------------------|
E|-----------------------------------------------------------------|

Em              A7         D                      Bm7
He never listen to them he knows that they're the fools
Em              A7
    They don't like him

     D   Bb       D           Bb
The fool on the hill sees the sun going down and the
C                        Dm             Dm     D
Eyes in his head see the world spinning round

   D        Em     D      Em
Oohh, round.. round..   ooohh

E|---------------5-7-7------7-9-10-10-10-10-10-10-9-------12-12-12-|
B|-7-7-7-7--7-8--------7-10-------------------------10-12----------|
G|-----------------------------------------------------------------|
D|-----------------------------------------------------------------|
A|-----------------------------------------------------------------|
E|-----------------------------------------------------------------|
00:00 / 00:00
Otros videos de esta canción
Repetir
Otros videos de esta canción
Composición de John Lennon / Paul McCartney
18.275 vistas
    • ½ Tono
    • A
    • Bb
    • B
    • C
    • Db
    • D
    • Eb
    • E
    • F
    • F#
    • G
    • Ab
  • Agregar a la lista

    0 comentarios

    Ver todos los comentarios
    00:00 / 00:00
    OK