Cifra Club

The Word

The Beatles

Tab de bajo: Principal
reproducciones 103
|-----|--------------------------------|---------------------------------|
|-----|--------------------------------|---------------------------------|
|-----|--5---5-----5--3----------3--4--|--5---5-----5--3-----------3--4--|
|-----|------------------5---5---------|-------------------5---5---------|

A %
   word...                            free...
   word...                            free...
   word...                            say...
|----------------------------------|-----------------------------------|
|*---------------------------------|-----------------------------------|
|*-5---5-----5--3------------3--4--|--5---5-----5--3-------------3--4--|
|------------------5---5-----------|-------------------5---5-----------|

   word...                            me...
   word...                            me...
   word...                            way...
|----------------------------------|-----------------------------------|
|----------------------------------|--------------------------------3--|
|--5---5-----5--3------------3--4--|--5---5-----5--3-------------5-----|
|------------------5---5-----------|-------------------5---5-----------|

   word...                            of...
   word...                            of...
   word...                            of...
|----------------------------------|--------------------------------|
|--5---5-----5--3---------------3--|--5---5-----5--3----------------|
|------------------5---5-----5-----|------------------5---5---3-----|
|----------------------------------|-----------------------------5--|

   heard...                           love?
   heard...                           love?
                                      love
|----------------------------------|---------------------------------|
|----------------------------------|---------------------------------|
|--5---5-----5--3---------------3--|--5---5-----5--3----------3------|
|------------------5---5-----5-----|------------------5---5-------5--|

   so fine...      sunshine...     word                         TO CODA
|---------------|---------------|------------------------------|
|-----------7---|-----------5---|------------------------------|
|-----4--7------|-----2--5------|--5-----5--3---------------3--|
|--5------------|--3------------|--------------5---5-----5-----|

   love
|-------------------------|
|-------------------------|
|--5---5-----5--3---------|
|------------------5---5--|

B
                                                       1,2__________________
     in the...       misunderstood     but now...        word...
   everywhere...     hear it...        in the...         I have...
     now that...     feel...           I'm...              
|-----------------|-----------------|-----------------|-------------------5--|
|-----------------|-----------------|--3---3---3---3--|--5---5---5---5/7----*|
|--5---5---5---5--|--3---3---3---3--|-----------------|---------------------*|
|-----------------|-----------------|-----------------|----------------------|

3______________________
|-------------------5--|
|--5---5---5---5/7-----|
|----------------------|
|----------------------|

CODA
   love
|-------------------------------|
|-------------------------------|
|--5---5-----5--3---------------|
|------------------5---5-----5--|

C
|-----------------|-----------------|-----------------|---------------5--------5--|
|-----------------|-----------------|--3---3---3---3--|--5---5---5/7------5/7-----|
|--5---5---5---5--|--3---3---3---3--|-----------------|---------------------------|
|-----------------|-----------------|-----------------|---------------------------|

                                                       say the      
|------------------------------|------------------------------|
|------------------------------|------------------------------|
|--5-----5---3----------3---5--|--5-----5---3----------3---5--|
|---------------5---5----------|---------------5---5----------|

D
   word                           love                           word
|------------------------------|------------------------------|--------------------------------|
|------------------------------|---------------------------4--|--5-----5-----3----------3---5--|
|--5-----5---3----------3---5--|--5-----5---3------3---5------|-----------------5---5----------|
|---------------5---5----------|---------------5--------------|--------------------------------|

   love...                             word
|---------------------5-------------|---------------------------------|
|--5-----5---3---5/7-----7\5--3-----|---------------------------------|
|--------------------------------5--|--5---5---5---3-----------3---5--|
|-----------------------------------|------------------5---5----------|

   love                              word
|---------------------------------|-----------------|-----------------|
|---------------------------------|--------------7--|--------------5--|
|--5---5-----5--3----------3------|------4---7------|------2---5------|
|------------------5---5-------5--|--5--------------|--3--------------|

   love
|--------------------------------|--------------------------|
|--------------------------------|--------------------------|
|--5-----5-----3----------3---4--|--5-----5-----3-----------|
|-----------------5---5----------|-----------------5-----5--|

E
|-----------------|-----------------|-----------------|-----------------|
|-----------------|-----------------|--3---3---3---3--|--5---5---5---5--|
|--5---5---5---5--|--3---3---3---3--|-----------------|-----------------|
|-----------------|-----------------|-----------------|-----------------|

paulislivefaclube@ig.com.br

_______________________________________________________
Contribuição: valdir felix junior(paulislivefaclube@ig.com.br)
Compositor: Lennon / McCartney

0 comentarios

mostrar más comentarios

¿Conseguiste tocar?

0 tocaron 0 aún no

¡Graba un vídeo tocando The Word y envianoslo!

00:00 / 00:00
outros vídeos desta música
repetir qualidade Automático
Outros vídeos desta música
00:00 / 00:00
Automático
OK