Cifra Club

While My Guitar Gently Weeps

The Beatles

Cifrado: Principal (guitarra y guitarra eléctrica)
Selo Cifra Club: esta cifra foi revisada para atender aos critérios oficiais da nossa Equipe de Qualidade.
tono: Gm (forma dos acordes no tom de Dm) Capotraste na 5ª casa
[Intro] Dm  Dm/C  Dm/B  Bb  Dm  C9  Dm

Parte 1 de 3
   Dm               Dm/C
E|-1----1-----------------1-----------------|
B|-3--------3-----------------3-------------|
G|-2----------------------------------------|
D|-0--0---0---0-----------------------------|
A|------------------3--3----3---3-----------|
E|------------------------------------------|

Parte 2 de 3
   Dm/B             Bb
E|------1-----------------------------------|
B|----------3-------------3---3-------------|
G|------------------------3---3-------------|
D|------------------------------------------|
A|-2--2---2---2-----1--1----1---1-----------|
E|------------------------------------------|

Parte 3 de 3
  Dm            C9           Dm
E|-1---0h1p0-----------------1----1-------1-|
B|-3---3-----3--3---1--------3--------3---3-|
G|-2------------0-------0----2------------2-|
D|-0-0----------2------------0--0---0---0-0-|
A|--------------3-3---3---3-----------------|
E|------------------------------------------|

[Primeira Parte]

Parte 1 de 2
   Dm               Dm/C
E|-1----1-----------------1-----------------|
B|-3--------3-----------------3-------------|
G|-2----------------------------------------|
D|-0--0---0---0-----------------------------|
A|------------------3--3----3---3-----------|
E|------------------------------------------|

Parte 2 de 2
   Dm/B             Bb
E|------1-----------------------------------|
B|----------3-------------3---3-------------|
G|------------------------3---3-------------|
D|------------------------------------------|
A|-2--2---2---2-----1--1----1---1-----------|
E|------------------------------------------|

   Dm         Dm/C
I look at you all
         Dm/B               Bb
See the love there that's sleeping
Dm              C9         G    A
   While my guitar gently weeps
   Dm           Dm/C
I look at the floor 
       Dm/B          Bb
And I see it needs sweeping
Dm              C9         F     A
   Still my guitar gently weeps

[Refrão]

D                F#m
  I don't know why       
Bm         F#m
   Nobody told you
Em                     A
   How to unfold your love
D               F#m
  I don't know how 
Bm              F#m
   Someone controlled you
Em                       A
   They bought and sold you

[Segunda Parte]

Dm                Dm/C
   I look at the world 
       Dm/B        Bb
And I notice it's turning
Dm              C9         G    A
   While my guitar gently weeps
     Dm        Dm/C
With every mistake 
         Dm/B       Bb
We must surely be learning
Dm              C9          F    A
   Still my guitar gently weeps

[Refrão]

D               F#m
  I don't know how 
Bm             F#m
   You were diverted

Em                     A
   You were perverted too
D               F#m
  I don't know how
Bm             F#m
   You were inverted
Em                 A
   No one alerted you

[Terceira Parte]

   Dm            Dm/C
I look from the wings 
         Dm/B         Bb
At the play you are staging
Dm              C9         G    A
   While my guitar gently weeps
   Dm           Dm/C
As I’m sitting here
       Dm/B       Bb
Doing nothing but aging
Dm              C9         F    A
   Still my guitar gently weeps

[Final] Dm  Dm/C  Dm/B  Bb  
        Dm  C9  Dm  C9  Dm  C9  Dm  C9  Dm

Parte 1 de 4
   Dm               Dm/C
E|-1----1-----------------1-----------------|
B|-3--------3-----------------3-------------|
G|-2----------------------------------------|
D|-0--0---0---0-----------------------------|
A|------------------3--3----3---3-----------|
E|------------------------------------------|

Parte 2 de 4
   Dm/B             Bb
E|------1-----------------------------------|
B|----------3-------------3---3-------------|
G|------------------------3---3-------------|
D|------------------------------------------|
A|-2--2---2---2-----1--1----1---1-----------|
E|------------------------------------------|


Parte 3 de 4
   Dm       C9    Dm       C9
E|-1--0-----------1--0----------------------|
B|-3-----3--3--1--3-----3--3----------------|
G|-2--------0-----2--------0----------------|
D|-0--------2-----0--------2----------------|
A|----------3--------------3----------------|
E|------------------------------------------|

Parte 4 de 4
   Dm       C9    Dm       C9       Dm
E|-1--0-----------1--0--------------1-------|
B|-3-----3--3--1--3-----3--3--------3-------|
G|-2--------0-----2--------0--------2-------|
D|-0--------2-----0--------2--------0-------|
A|----------3--------------3----------------|
E|------------------------------------------|
Otros videos de esta canción
    98.096 exhibiciones
    • Simplificar cifrado
      • ½ Tono
      • Am
      • Bbm
      • Bm
      • Cm
      • C#m
      • Dm
      • Ebm
      • Em
      • Fm
      • F#m
      • Gm
      • G#m
    • Agregar a la lista

    Afinação da cifra

    Afinador online

      Capítulos
      • Tocando a Música
      • Apresentação/Equipamentos
      • Acordes da Introdução
      • Tocando a Introdução
      • Dica 1
      • Ensinando Ritmo da Introdução - Parte 1 de 3
      • Ensinando Ritmo da Introdução - Parte 2 de 3
      • Ensinando Ritmo da Introdução - Parte 3 de 3
      • Acordes da Primeira Parte
      • Tocando a Primeira Parte
      • Tocando Ritmo da Primeira Parte
      • Ensinando Ritmo da Primeira Parte - Parte 1 de 2
      • Ensinando Ritmo da Primeira Parte - Parte 2 de 2
      • Ensinando Ritmo da Primeira Parte
      • Acordes do Refrão
      • Tocando Refrão
      • Ensinando Ritmo do Refrão
      • Dica 2
      • Ensinando Frase Final - Parte 1 de 4
      • Ensinando Frase Final - Parte 2 de 4
      • Ensinando Frase Final - Parte 3 de 4
      • Ensinando Frase Final - Parte 4 de 4
      • Encerramento
      Ops (: Contenido disponible solo en portugués.
      OK