Cifra Club

While My Guitar Gently Weeps

The Beatles

Tablatura: Principal (guitarra)
reproducciones 69.003
Tono: A
Dedilhado Inicial:

E|-----------------------10----10--12--------10--------10----------|
B|-10*---12-12-13-----13----13--------13--------12--------10-------|
G|---------------------------------------14--------12--------11----|
D|-----------------------------------------------------------------|
A|-----------------------------------------------------------------|
E|-----------------------------------------------------------------|

Solo da guitarra:

E|--0-------4-------|
B|----0-------------|
G|------2/4---------|
D|------------------|
A|------------------|
E|0-----------------|

   Am        Am/G         Am/F#               F7+
I look at you all see the love there that's sleeping
 Am          G          D    E
While my guitar gently weeps

E|------------------------------|
B|-13-13-13---------------------|
G|---------14-13-13-14-13-------|
D|------------------------14-14-|
A|------------------------------|
E|------------------------------|

   Am          Am/G       Am/F#          F7+
I look at the floor and I see it needs sweeping
Am           G          C    E
Still my guitar gently weeps

E|-----------------5--------------------|
B|---------------------8----------------|
G|-7b9------7b9-----------7b9r7-----6---|
D|--------------------------------------|
A|--------------------------------------|
E|--------------------------------------|

Refrão:

A            C#m F#m     C#m
I don't know why nobody told you
Bm                  E   D/F#   E
how to unfold your love

E|--------9----7----4----2---0-----2-0-|
B|-------------------------------------|
G|----7/9---7----4----2----1---1/2-----|
D|-------------------------------------|
A|-------------------------------------|
E|-------------------------------------|

A            C#m F#m           C#m
I don't know how  someone controlled you
Bm                    E  D/F#  E
They bought and sold you

E|--------------12----------------|
B|14--12----------12--------------|
G|13--13---13--------11\9-9-------|
D|--------------------------------|
A|--------------------------------|
E|--------------------------------|
   Am        Am/G         Am/F#           F7+
I look at the world and I notice it's turning
Am          G          D       E
While my guitar gently weeps


E|-----------5----------8----------|
B|---------5----8/10-------10~~----|
G|---7b9---------------------------|
D|---------------------------------|
A|---------------------------------|
E|---------------------------------|

   Am          Am/G       Am/F#          F7+
With every mistake we must surely be learning
Am           G          C    E
Still my guitar gently weeps

Tablatura:

Parte 1:
E|-------------------12-------------------------------------------|
B|-13-12-10--10-12-13--13-10---------13-13~~~~---------13-13~~~~--|
G|---------12-------------------12h14-----------12h14-------------|
D|----------------------------------------------------------------|
A|----------------------------------------------------------------|
E|----------------------------------------------------------------|

Parte 2:
E|------------------------15----------15/17-17-17-17-15-15h17--------15--------------15----------|
B|-----13-15b17r15-13-15b17-b17-15-13------------------17-----17-15b17-b17r15-13h15b17-b17r15-13-|
G|12h14------------------------------------------------------------------------------------------|
D|-----------------------------------------------------------------------------------------------|
A|-----------------------------------------------------------------------------------------------|
E|-----------------------------------------------------------------------------------------------|

Parte 3:
E|---------------------------------------------------------------------10h12-12/15-15-17-17-15-17|
B|13--------13-13-----------------------------------------10h13-13/15----------------------------|
G|--14-12-14-----------12-------------------------12h14------------------------------------------|
D|---------------12h14--14-12p10-12-10h12-10-12h14-----------------------------------------------|
A|-----------------------------------------------------------------------------------------------|
E|-----------------------------------------------------------------------------------------------|

A            C#m F#m     C#m
I don't know how you were diverted
Bm                  E  D/F#  E
You were perverted too

E|0-0----0---------4----2----0--|
B|----5----5--------------------|
G|------------2/4----4----2-----|
D|------------------------------|
A|------------------------------|
E|------------------------------|

A            C#m F#m           C#m
I don't know how you were inverted
Bm                    E  D/F#  E
No one alerted you.

E|-----12--12--12------|
B|---------------------|
G|12/13--14~-14~-------|
D|---------------------|
A|---------------------|
E|---------------------|

    Am        Am/G         Am/F#               F7+
I look at you all see the love there that's sleeping
 Am          G          D    E
While my guitar gently weeps

E|----------------------------------------------|
B|10-10--10b13--10b13--8--10-10---10p8----------|
G|--------------------------------------9p7--5--|
D|----------------------------------------------|
A|----------------------------------------------|
E|----------------------------------------------|

Am        Am/G    Am/F#  F7+
I look at you all
Am           G          C    E
Still my guitar gently weeps

Tablatura Final:

E|-----------------------------------------------------|
B|-----------------------------------------------------|
G|7/9-7/9-7/9-7/9-7/9-7/9-7/9-7/9-7/9-7/9-7/9-7/9-7/9--|
D|-----------------------------------------------------|
A|-----------------------------------------------------|
E|-----------------------------------------------------|

E|----------------10-8-------------------10-10-8-10-8-10-8------------------------------------17--17|
B|--10-10-10-10--------10----------------------------------10-13-13-10-10-13-13-10/13-15/17-17--17--|
G|-------9--9--9---------9-7------------------------------------------12----------------------------|
D|--------------------------10-----10-10------------------------------------------------------------|
A|----------------------------10-12-----------------------------------------------------------------|
E|--------------------------------------------------------------------------------------------------|

E|--------------17...--|
B|-17-15---------------|
G|-------17-14---------|
D|---------------------|
A|---------------------|
E|---------------------|
Acordes para:

    0 comentarios

    mostrar más comentarios

    ¿Conseguiste tocar?

    87 tocaron 2 aún no

    ¡Graba un vídeo tocando While My Guitar Gently Weeps y envianoslo!

    00:00 / 00:00
    outros vídeos desta música
    repetir qualidade Automático
    Outros vídeos desta música
    00:00 / 00:00
    Automático
    OK