Cifra Club

Yer Blues

The Beatles

Cifrado: Principal (guitarra y guitarra eléctrica)
tono: E
[Verso]

  E
E|--------------------------------------------------------------|
B|---3-3-3------------------------------------------------------|
G|---4-4-4------------------------------------------------------|
D|-2--------5(7)5(7)5-2-----------------------------------------|
A|--------------------------------------------------------------|
E|--------------------------------------------------------------|

  A
E|-------------------------------------------------------------|
B|---3-3-3-----------------------------------------------------|
G|---4-4-4-----------2-----------------------------------------|
D|-2-------5(7)5(7)5-------------------------------------------|
A|-------------------------------------------------------------|
E|-------------------------------------------------------------|

  E
E|-------------------------------------------------------------|
B|---3-3-3----------------/3-3-3\------------------------------|
G|---4-4-4----------------/4-4-4\------------------------------|
D|-2--------5(7)5(7)5-2----------------------------------------|
A|-------------------------------------------------------------|
E|-------------------------------------------------------------|

  G                         B
E|-------------------7\5-4-3-2---------------------------------|
B|-------------------------------------------------------------|
G|----------------/8--\6-4-3-2---------------------------------|
D|-------------5-----------------------------------------------|
A|--------5-/7-------------------------------------------------|
E|-3--5/7------------------------------------------------------|

        E
Yes I'm lonely wanna die
        A            E
Yes I'm lonely wanna die
   G
If I ain't dead already
B7                            E    A  E  B7
Ooh girl you know the reason why

        E               
In the morning wanna die
         A            E
In the evening wanna die
      G
If I ain't dead already
B7                            E    A  E  B7
Ooh girl you know the reason why

[Ponte]

E                         A E
My mother was of the sky
E                         A E
My father was of the earth
E                         A E
But I am of the universe
And you know what it's worth

E|-------------------------------------------------------------|
B|-10(12)---8---8(9)-------------------------------------------|
G|------------9------9~----------------------------------------|
D|-------------------------------------------------------------|
A|-------------------------------------------------------------|
E|-------------------------------------------------------------|

A                E
I'm lonely wanna die
G
If I ain't dead already
B7                           E    A  E B7
Ooh girl you know the reason why

E                  A E
The eagle picks my eye
E                      A E
The worm he licks my bone
E                 
I feel so suicidal
E
Just like Dylan's Mr. Jones

A             E
Lonely wanna die
G
If I ain't dead already
B7                            E   A E B7
Ooh girl you know the reason why

E                       A E
Black cloud crossed my mind
E                     A E
Blue mist round my soul
E              
Feel so suicidal
E
Even hate my rock and roll

A            E
Wanna die yeah wanna die
G
If I ain't dead already
B7                            E   A E B7
Ooh girl you know the reason why

[Solo]

[Parte 1]

E|--------------------------------------------------------------|
B|--------------------------------------------------------------|
G|-9h12-9h12-9h12--12h14-12h14-12h14--9h12-9h12-9h12-9h12-------|
D|-9h12-9h12-9h12--12h14-12h14-12h14--9h12-9h12-9h12-9h12-------|
A|--------------------------------------------------------------|
E|--------------------------------------------------------------|

[Parte 2]

E|--------------------------------------------------------------|
B|------------------12-9-12-9-----------------------------------|
G|-11~--9-9-11-11~--12-9-12-9--12-9-12--9-12-9------------------|
D|-11~--9-9-11-11~-------------12-9-12--9-12-9-12---------------|
A|---------------------------------------------12--10-----------|
E|----------------------------------------------------12~-------|

E|--------------------------------------------------------------|
B|-15(17)-15(17)~--15(17)-15(17)~---15(17)-15(17)-15(17)-15(17)-|
G|--------------------------------------------------------------|
D|--------------------------------------------------------------|
A|--------------------------------------------------------------|
E|--------------------------------------------------------------|

E|-15(17)-15(17)--15(17)-15(17)-15(17)-12~----------------------|
B|--------------------------------------------------------------|
G|--------------------------------------------------------------|
D|--------------------------------------------------------------|
A|--------------------------------------------------------------|
E|--------------------------------------------------------------|

E|--------------------------------------------------------------|
B|--------------------------------------------------------------|
G|-------------12-----12----12------12-14-14(16)-14(16)14-------|
D|-------12| H14----14-----14----14-------------------------------|
A|-12| H14--------------------------------------------------------|
E|--------------------------------------------------------------|

E|--------------------------------------------------------------|
B|-15(17)15-----------------------------------------------------|
G|----------14(16)14-12(13)-------------------------------------|
D|--------------------------14----------------------------------|
A|--------------------------------------------------------------|
E|--------------------------------------------------------------|
00:00 / 00:00
Otros videos de esta canción
Repetir
Otros videos de esta canción
Composición de John Lennon / Paul McCartney
Colaboración y revisión:
  • Cappif
  • Leonardo Marques
9.591 exhibiciones
    • ½ Tono
    • A
    • Bb
    • B
    • C
    • Db
    • D
    • Eb
    • E
    • F
    • F#
    • G
    • Ab
  • Agregar a la lista
    00:00 / 00:00
    OK