Cifra Club

Yesterday

The Beatles

Tab de bajo: Completa
G |-------------------------------------------------------------------------------------------3----
D |--3-----3-----3-----3-----2----------------------------------------3-----3--2--------5--------3-3-------
A |-------------------------------------0-----5-----5--3--1-----3-------------------5----------------------
E |--------------------------------------------------------------------------------------------------------

G |-------------------------------------------------------------------------------3-----------
D |--3-----3-----2----------------------------------------3-----3--2--------5--------3-3------
A |------------------------0-----5-----5--3--1-----3-------------------5----------------------
E |-------------------------------------------------------------------------------------------

(refrão)
G |------------3----------------------------------------------
D |-----2-----------------------------------------3-----3-----
A |--------------------5--3--1--3---------3-------------------
E |-----------------------------------3-----------------------

G |------------3----------------------------------------------
D |-----2-----------------------------------------3-----------
A |--------------------5--3--1--3---------3-------------------
E |-----------------------------------3-----------------------

(Volta tipo no início, mas o “F” na corda D)
G |--------------------------------------------------------------------------------3-----------
D |--3----3-3-----2----------------------------------------3-----3--2--------5--------3-3------
A |------------------------0-----5-----5--3--1-----3-------------------5-----------------------
E |--------------------------------------------------------------------------------------------

(refrão)
G |------------3----------------------------------------------
D |-----2-----------------------------------------3-----3-----
A |--------------------5--3--1--3---------3-------------------
E |-----------------------------------3-----------------------

G |------------3----------------------------------------------
D |-----2-----------------------------------------3-----------
A |--------------------5--3--1--3---------3-------------------
E |-----------------------------------3-----------------------

        “Yesterday...”
G |--------------------------------------------------------------------------------3-----------
D |--3----3-3-----2----------------------------------------3-----3--2--------5--------3-3------
A |--------------------------0-----5-----5--3--1-----3-------------------5---------------------
E |--------------------------------------------------------------------------------------------

G |-------------------2--------------------------------------------
D |-----3-----5------------3-3-------------------------------------
A |----------------------------------------------------------------
E |----------------------------------------------------------------
reproducciones 91
Composição: Paul McCartney Colaboración y revision:
  • FRANKLIN CANUTO

0 comentarios

mostrar más comentarios
00:00 / 00:00
outros vídeos desta música
repetir qualidade Automático
Outros vídeos desta música
00:00 / 00:00
Automático
OK