Cifra Club

Yesterday

The Beatles

Tablatura: Versão 4 (guitarra)
Tono: F
[Intro] F

e|-------------------0-1-0------------------------------------------------|
B|-------------0-2-3-------3-3-3-1----3-3-1-------------------------------|
G|0--------2-2---------------------3--------3-2-0-3-2-2-0----2-0------2-2-| 
D|--3-3-3-2--------------0-----0--------------------------3-------0-3-----|
A|---------0-----0---------------3-1------3---------------5----3----1-----|
E|1-----1-----------------------------------------1---1-----------------1-|

e|-------0----------0-----------0--0--1--1--0-----0-----------------------|
B|----3-----3----2-----2--3--3-----------------3----3--1--3---------------|
G|-2----------2----------------------------------------------2--0---------|
D|------------------------0----------------------------------------3------|
A|-0----------0-----------------3-----1-----1-----3----3------------------|
E|-----------------------------------------------------------1-----1------|

F                Em7          A7               Dm        Dm  Dm7  Bb
Yesterday,             all my   trouble seemed so far away                now

C7                     F          F   Em   Dm        G7        Bb F
it looks as though they're here to stay     oh I   believe  in   yesterday

 F                Em7          A7               Dm        Dm  Dm7  Bb
Suddenly,              I´m not  half the man  I  use to be               there´s

C7                     F          F   Em   Dm        G7        Bb F
a  shadow    hanging      over me           oh yesterday     came suddenly

Em7     A7        Dm Am7 Bb         Gm6       C7         F
Why     she       had to go I don´t Know she  wouldn´t say 

Em7     A7        Dm7 Am7   Bb          Gm6      C7       F
I       said      something wrong now I long for yesterda a      a   ay

   F                Em7          A7               Dm        Dm  Dm7  Bb
 Yesterday,             love was such an easy     game to play            now

C7                     F          F   Em   Dm        G7        Bb F
I  need a place to        hide away         oh I   believe  in   yesterday

Em7     A7        Dm Am7 Bb         Gm6       C7         F
 Why     she       had to go I don´t Know she  wouldn´t say 

Em7     A7        Dm7 Am7   Bb          Gm6      C7       F
 I       said      something wrong now I long for yesterda a       a   ay

 F                Em7          A7               Dm        Dm  Dm7  Bb
Yesterday,             love was such an easy     game to play            now

C7                     F          F   Em   Dm        G7        Bb  F
 I  need a place to        hide away         oh I   believe  in   yesterday
reproducciones 915
Acordes para:
    Compositor: Paul McCartney Colaboración y revision:
    • Fabrício Iizuka
    • rogerio junior

    0 comentarios

    mostrar más comentarios
    00:00 / 00:00
    outros vídeos desta música
    repetir qualidade Automático
    Outros vídeos desta música
    00:00 / 00:00
    Automático
    OK