Cifra Club

You Really Got a Hold On Me

The Beatles

Cifrado: Principal (guitarra y guitarra eléctrica)
tono: A
[Intro]

E|-------------------------------------------------------------|
B|-------------------------------------------------------------|
G|-------------------------------------------------------------|
D|-------------------------------------------------------------|
A|--------0-2-0---0-----0----4----4-2-0-2-------4----4-2-0-2---|
E|--0-0-2-------2-------------------------2------------------2-|

A
I don't like you, but I love you
F#m
Seems that I'm always thinking of you
A     A7               D                 B7
Oh,oh,oh, you treat me badly, I love you madly
    E7           A
You really got a hold on me you really got a hold on me 
                 F#m
You really got a hold on me you really got a hold on me baby

A
I don't want you, but I need you
F#m
Don't wanna kiss you, but I need to
A       A7            D                     B7
Oh, oh, oh, you do me wrong now, my love is strong now
E7         A
You really got a hold on me you really got a hold on me 
                 F#m
You really got a hold on me you really got a hold on me baby

A      A7            D
I love you and all I want you to do is just
A                          E7
Hold me, hold me, hold me, hold me

E|-----------------------------------------------------|
B|-----------------------------------------------------|
G|-----------------------------------------------------|
D|---------------------2----4----2---------4----2----2-|
A|--------0-2-0---0----2----4----2----4----4----2----0-|
E|--0-0-2-------2--------------------------------------|

A  F#m          A  F#m 
       Tighter         Tighter 
A
I wanna leave you, don't wanna stay here
F#m
Don't wanna spend another day here
A       A7          D                     B7
Oh, oh, oh, I wanna split now, I just can quit now
E7         A
You really got a hold on me you really got a hold on me 
                 F#m
You really got a hold on me you really got a hold on me  baby

A      A7            D
I love you and all I want you to do is just
A                          E7
Hold me, hold me, hold me, hold me

    A
You really got a hold on me you really got a hold on me 
                 F#m
You really got a hold on me you really got a hold on me
00:00 / 00:00
Otros videos de esta canción
Repetir
Otros videos de esta canción
Composición de William Robinson
Colaboración y revisión:
  • Danniloramos
  • Kaique Freitas
1.014 exhibiciones
    • ½ Tono
    • A
    • Bb
    • B
    • C
    • Db
    • D
    • Eb
    • E
    • F
    • F#
    • G
    • Ab
  • Agregar a la lista
    00:00 / 00:00
    OK