Cifra Club

Happy Birthday

The Birthday Massacre

Cifrado: Principal (guitarra y guitarra eléctrica)
Selo Cifra Club: esta cifra foi revisada para atender aos critérios oficiais da nossa Equipe de Qualidade.
tono: F
Lead Guitar
E|---------------------------------------------------------|
B|---------------------------------------------------------|
G|--17-17-17-17-16-16-16-14-14-14-14-12-12-12-12-----------|
D|---x--x--x--x--x--x--x--x--x--x--x--x--x--x--x-----------|
A|--15-15-15-15-14-14-14-12-12-12-12-10-10-10-10-----------|
E|---------------------------------------------------------|

E|---------------------------------------------------------|
B|---------------------------------------------------------|
G|--17-17-17-17-19-19-19-14-14-14-14-10-10-10-10-----------|
D|---x--x--x--x--x--x--x--x--x--x--x--x--x--x--x-----------|
A|--15-15-15-15-17-17-17-12-12-12-12--8--8--8--8-----------|
E|---------------------------------------------------------|

You do all that twice.

Rhythm Guitar
E|---------------------------------------------------------|
B|---------------------------------------------------------|
G|---------------------------------------------------------|
D|--3--5--0--7---------------------------------------------|
A|--3--5--0--7---------------------------------------------|
E|--3--5--0--7---------------------------------------------|
Otros videos de esta canción
    7 exhibiciones
      • ½ Tono
      • A
      • Bb
      • B
      • C
      • Db
      • D
      • Eb
      • E
      • F
      • F#
      • G
      • Ab
    • Agregar a la lista

    Afinação da cifra

    Afinador online

      Ops (: Contenido disponible solo en portugués.
      OK