Cifra Club

In The Dark

The Birthday Massacre

Cifrado: Principal (guitarra y guitarra eléctrica)
Selo Cifra Club: esta cifra foi revisada para atender aos critérios oficiais da nossa Equipe de Qualidade.
tono: D
INTRO/OUTRO

E|-----------------------------------------------------|
B|-----------------------------------------------------|
G|-----------------------------------------------------|
D|--4----2--5--2--4----2--5--2--4----2--5--2--4--5--2--|
A|--4----2--5--2--4----2--5--2--4----2--5--2--4--5--2--|
E|--4----2--5--2--4----2--5--2--4----2--5--2--4--5--2--|


E|-----------------------------------------------------|
B|-----------------------------------------------------|
G|-----------------------------------------------------|
D|--4----2--5--2--4----2--5--2--4----2--5--2--4--3--2--|
A|--4----2--5--2--4----2--5--2--4----2--5--2--4--3--2--|
E|--4----2--5--2--4----2--5--2--4----2--5--2--4--3--2--| x2

VERSES

(Mute these)
E|--------------------------------------------------------------------|
B|--------------------------------------------------------------------|
G|--------------------------------------------------------------------|
D|--4--4--4--4-----4--4--4--4-----4--4--4--4-----4--4--4--4--7--5--3--|
A|--4--4--4--4-----4--4--4--4-----4--4--4--4-----4--4--4--4--7--5--3--|
E|--4--4--4--4-----4--4--4--4-----4--4--4--4-----4--4--4--4--7--5--3--|

E|--------------------------------------------------------------------|
B|--------------------------------------------------------------------|
G|--------------------------------------------------------------------|
D|--2--2--2--2-----2--2--2--2-----2--2--2--2-----2--2--2--2--7--3--5--|
A|--2--2--2--2-----2--2--2--2-----2--2--2--2-----2--2--2--2--7--3--5--|
E|--2--2--2--2-----2--2--2--2-----2--2--2--2-----2--2--2--2--7--3--5--|
(Repeat as appropriate)

CHORUS

E|---------------------------------------------------------------------|
B|---------------------------------------------------------------------|
G|---------------------------------------------------------------------|
D|--4----------------7----------------2----------------2---------------|
A|--4----------------7----------------2----------------2---------------|
E|--4----------------7----------------2----------------2---------------|
(Repeat as appropriate)

-Intro/Outro again
-Verse again
-Chorus (twice the amount as last time)

E|-------------------------------------------------|
B|-------------------------------------------------|
G|-------------------------------------------------|
D|-------------------------------------------------|
A|-5-5-5-5-5-5-5-5-5-5-5-5-------------------------|
E|-------------------------7-7-7-7-7-7-7-7-7-7-7-7-|

E|-------------------------------------------------|
B|-------------------------------------------------|
G|-------------------------------------------------|
D|-------------------------------------------------|
A|-------------------------------------------------|
|-2-2-2-2-2-2-2-2-2-2-2-2-7-7-7-7-7-7-7-7-7-7-7-7-|

E|-------------------------------------------------|
B|-------------------------------------------------|
G|-------------------------------------------------|
D|-------------------------------------------------|
A|-5-5-5-5-5-5-5-5-5-5-5-5-------------------------|
E|-------------------------7-7-7-7-7-7-7-7-7-7-7-7-|

E|-------------------------------------------------|
B|-------------------------------------------------|
G|-------------------------------------------------|
D|-------------------------------------------------|
A|-------------------------------------------------|
|-2-2-2-2-2-2-2-2-2-2-2-2-2-2-2-2-2-2-2-2-2-2-2-2-|


E|-------------------------------------------------|
B|-------------------------------------------------|
G|-7-----------------------------------------------|
D|-7-----------------------7-----------------------|
A|-5-----------------------7-----------------------|
E|-------------------------7-----------------------|

E|-------------------------------------------------|
B|-------------------------------------------------|
G|-------------------------------------------------|
D|-2-----------------------7-----------------------|
A|-2-----------------------7-----------------------|
E|-2-----------------------7-----------------------|

E|-------------------------------------------------|
B|-------------------------------------------------|
G|-7-----------------------------------------------|
D|-7-----------------------7-----------------------|
A|-5-----------------------7-----------------------|
E|-------------------------7-----------------------|

E|-------------------------------------------------|
B|-------------------------------------------------|
G|-------------------------------------------------|
D|-2-----------------------2-----------------------|
A|-2-----------------------2-----------------------|
E|-2-----------------------2-----------------------|
Otros videos de esta canción
    17 exhibiciones
      • ½ Tono
      • A
      • Bb
      • B
      • C
      • Db
      • D
      • Eb
      • E
      • F
      • F#
      • G
      • Ab
    • Agregar a la lista

    Afinação da cifra

    Afinador online

      Ops (: Contenido disponible solo en portugués.
      OK