Cifra Club

Looking Glass

The Birthday Massacre

Cifrado: Principal (guitarra y guitarra eléctrica)
Selo Cifra Club: esta cifra foi revisada para atender aos critérios oficiais da nossa Equipe de Qualidade.
tono: Em
Intro!
E|------------------------------------------------------------|
B|------------------------------------------------------------|
G|------------------------------------------------------------|
D|-2-2-2--2-2-2--2-2-2--2-2-2--5-5-5--5-5-5--7-7-7--7-7-7--9--|
A|-2-2-2--2-2-2--2-2-2--2-2-2--5-5-5--5-5-5--7-7-7--7-7-7--9--|
E|-0-0-0--0-0-0--0-0-0--0-0-0--3-3-3--3-3-3--5-5-5--5-5-5--7--|
^play that twice


Verse
E|-----------------------------------------------------------|
B|-----------------------------------------------------------|
G|-----------------------------------------------------------|
D|-2-2--2-2-2--2-2-2--2-2-2--2-5-5--5-5-5--5-5-5--5-5-5--5---|
A|-2-2--2-2-2--2-2-2--2-2-2--2-5-5--5-5-5--5-5-5--5-5-5--5---|
E|-0-0--0-0-0--0-0-0--0-0-0--0-3-3--3-3-3--3-3-3--3-3-3--3---|
^play this x4


Chorus!
E|-----------------------------------------------------------|
B|-----------------------------------------------------------|
G|-----------------------------------------------------------|
D|-2-2-2--2-2-2--2-2-2--2-2-2--5-5-5--5-5-5--7-7-7--7-7-7----|
A|-2-2-2--2-2-2--2-2-2--2-2-2--5-5-5--5-5-5--7-7-7--7-7-7----|
E|-0-0-0--0-0-0--0-0-0--0-0-0--3-3-3--3-3-3--5-5-5--5-5-5----|
^play that twice

E|-------------------------------------|
B|-------------------------------------|
G|-----------------------5-5-5-5-5-----|
D|-2-2-2-5-5-5-5-5-7-7-7-5-5-5-5-5-----|
A|-2-2-2-5-5-5-5-5-7-7-7-3-3-3-3-3-----|
E|-0-0-0-3-3-3-3-3-5-5-5---------------|
^ play this x6


Verse 2!
E|-------------------------------------------|
B|-------------------------------------------|
G|-------------------------------------------|
D|-2-2-2--2--2-2-2--2--2-2-2--2--2-2-2--2----|
A|-2-2-2--2--2-2-2--2--2-2-2--2--2-2-2--2----|
E|-0-0-0--0--0-0-0--0--0-0-0--0--0-0-0--0----|

E|-----------------------------------------------------------|
B|-----------------------------------------------------------|
G|-----------------------------------------------------------|
D|-2-2--2-2-2--2-2-2--2-2-2--2-5-5--5-5-5--5-5-5--5-5-5--5---|
A|-2-2--2-2-2--2-2-2--2-2-2--2-5-5--5-5-5--5-5-5--5-5-5--5---|
E|-0-0--0-0-0--0-0-0--0-0-0--0-3-3--3-3-3--3-3-3--3-3-3--3---|
^play this x4


Chorus!
Same as above


Solo
E|-10-7-10-12-10-8-7-5-3----10-12-10-12-10-8-7-5-3--|
B|--------------------------------------------------|
G|--------------------------------------------------|
D|--------------------------------------------------|
A|--------------------------------------------------|
E|--------------------------------------------------|

E|------------------------------------------------------------|
B|------------------------------------------------------------|
G|------------------------------------------------------------|
D|-2-2-2--2-2-2--2-2-2--2-2-2--5-5-5--5-5-5--7-7-7--7-7-7--9--|
A|-2-2-2--2-2-2--2-2-2--2-2-2--5-5-5--5-5-5--7-7-7--7-7-7--9--|
E|-0-0-0--0-0-0--0-0-0--0-0-0--3-3-3--3-3-3--5-5-5--5-5-5--7--|
^play that twice


E|-------------------------------------|
B|-------------------------------------|
G|-----------------------5-5-5-5-5-----|
D|-2-2-2-5-5-5-5-5-7-7-7-5-5-5-5-5-----|
A|-2-2-2-5-5-5-5-5-7-7-7-3-3-3-3-3-----|
E|-0-0-0-3-3-3-3-3-5-5-5---------------|
^play this x8 when she starts singing again
Otros videos de esta canción
    35 exhibiciones
      • ½ Tono
      • Am
      • Bbm
      • Bm
      • Cm
      • C#m
      • Dm
      • Ebm
      • Em
      • Fm
      • F#m
      • Gm
      • G#m
    • Agregar a la lista

    Afinación de cifrado

    Afinador online

      OK