Cifra Club

Ookami No Nodo

The Birthday

Cifrado: Principal (guitarra y guitarra eléctrica)
tono: A
E|-------------------------------------------|
B|-------------------------------------------|
G|-------------------------------------------|
D|-------------------------------------------|(4x)
A|------------3---5---------3----------------|
E|------3-4-5---5-----3-4-5---5-4-3-0--------|

E|-------------------------------------------|
B|-------------------------------------------|
G|----------------------5--7-7--7-7----------|
D|----5--7-7--7-7-------5--7-7--7-7----------|(4x)
A|----5--7-7--7-7-------3--5-5--5-5----------|
E|----3--5-5--5-5----------------------------|

E|---------------------|
B|---------------------|
G|---------------------|
D|--------5/7----------|(4x)
A|---5/7--3/5--5/7-----|
E|---3/5-------3/5-----|

E|---------------------------|       |----------|
B|---------------------------|       |----------|
G|---------------------------|       |----------|
D|--------5/7--------7-5-----|(3x)   |----------|
A|---5/7--3/5--5/7-------7-5-|       |--7/2-----|
E|---3/5-------3/5-----------|       |--5/0-----|

E|---------------------|
B|---------------------|
G|---------------------|
D|--------5/7----------|(4x)
A|---5/7--3/5--5/7-----|
E|---3/5-------3/5-----|

E|---------------------------|       |----------|
B|---------------------------|       |----------|
G|---------------------------|       |----------|
D|--------5/7--------7-5-----|(3x)   |----------|
A|---5/7--3/5--5/7-------7-5-|       |--7/2-----|
E|---3/5-------3/5-----------|       |--5/0-----|

E|-------------------------------------------|
B|-------------------------------------------|
G|-------------------------------------------|
D|-------------------------------------------|(4x)
A|------------3---5---------3----------------|
E|------3-4-5---5-----3-4-5---5-4-3-0--------|

E|------------3------------------------------|
B|------------3------------------------------|
G|--1----1-----------------------------------|
D|--2----2-----------------------------------|
A|--2----2----1------------------------------|
E|------------3------------------------------|

E|---------------------|
B|---------------------|
G|---------------------|
D|--------5/7----------|(4x)
A|---5/7--3/5--5/7-----|
E|---3/5-------3/5-----|

E|---------------------------|       |----------|
B|---------------------------|       |----------|
G|---------------------------|       |----------|
D|--------5/7--------7-5-----|(3x)   |----------|
A|---5/7--3/5--5/7-------7-5-|       |--7/2-----|
E|---3/5-------3/5-----------|       |--5/0-----|

E|-------------------------------------------|
B|-------------------------------------------|
G|-------------------------------------------|
D|-------------------------------------------|(4x)
A|------------3---5---------3----------------|
E|------3-4-5---5-----3-4-5---5-4-3-0--------|

E|------------3------------------------------|
B|------------3------------------------------|
G|--1----1-----------------------------------|
D|--2----2-----------------------------------|
A|--2----2----1------------------------------|
E|------------3------------------------------|

E|-------------------------------|
B|-------------------------------|
G|-------------------------------|
D|--7-6-5------------------------|
A|--------7-6-5---3-4-5----------|
E|----------------------3-4-5----|

E|-------------------------------|
B|-------------------------------|
G|-------------------------------|
D|--7-6-5------------------------|
A|--------7-6-5---3-4-5----------|
E|----------------------3-4-5----|

E|-------------------------------------|
B|-------------------------------------|
G|-------------------------------------|
D|--------5/7----------------5/7-------|
A|---5/7--3/5--5/7----5/7----3/5--5/7--|
E|---3/5-------3/5----3/5---------3/5--|

E|-------------------------------------|
B|-------------------------------------|
G|-------------------------------------|
D|--------5/7----------------5/7-------|
A|---5/7--3/5--5/7----5/7----3/5--5/7--|
E|---3/5-------3/5----3/5---------3/5--|

E|---------------------------|
B|---------------------------|
G|---------------------------|
D|--------5/7--------7-5-----|(3x)
A|---5/7--3/5--5/7-------7-5-|
E|---3/5-------3/5-----------|

E|---------------------------------------------|
B|---------------------------------------------|
G|---------------------------------------------|
D|----------------------7--5-------------------|(4x)
A|------------3---5----------7-6-5--3----------|
E|------3-4-5---5--------------------3-5-------|

E|---------------------------|       |----------|
B|---------------------------|       |----------|
G|---------------------------|       |----------|
D|--------5/7--------7-5-----|(3x)   |----------|
A|---5/7--3/5--5/7-------7-5-|       |--7/2-----|
E|---3/5-------3/5-----------|       |--5/0-----|

E|-------------------------------------------|
B|-------------------------------------------|
G|-------------------------------------------|
D|-------------------------------------------| (4x)
A|------------3---5---------3----------------|
E|------3-4-5---5-----3-4-5---5-4-3-0--------|

E|------------3------------------------------|
B|------------3------------------------------|
G|--1----1-----------------------------------|
D|--2----2-----------------------------------|
A|--2----2----1------------------------------|
E|------------3------------------------------|

E|-------------------------------------------|
B|-------------------------------------------|
G|----------------------5--7-7--7-7----------|
D|----5--7-7--7-7-------5--7-7--7-7----------| (8x)
A|----5--7-7--7-7-------3--5-5--5-5----------|
E|----3--5-5--5-5----------------------------|

E|-------------------------------|
B|-------------------------------|
G|-------------------------------|
D|--7-6-5------------------------|
A|--------7-6-5---3-4-5----------|
E|----------------------3-4-5----|

Composición de The Birthday
Colaboración y revisión:
  • Otávio Jorge
3 vistas
    • ½ Tono
    • A
    • Bb
    • B
    • C
    • Db
    • D
    • Eb
    • E
    • F
    • F#
    • G
    • Ab
  • Agregar a la lista

    0 comentarios

    Ver todos los comentarios

    ¿Lograste tocar?

    0 Tocaron 0 Aún no

    ¡Graba un video tocando Ookami No Nodo y envíanoslo!

    00:00 / 00:00
    Outros vídeos desta música
    Repetir Calidad Automático
    Outros vídeos desta música
    00:00 / 00:00
    Automático
    OK