Cifra Club

Laika

The Cardigans

Cifrado: Principal (guitarra y guitarra eléctrica)
Selo Cifra Club: esta cifra foi revisada para atender aos critérios oficiais da nossa Equipe de Qualidade.
tono: G
Date: Thu, 9 Nov 1995 13:24:49 +0100 (MET)
From: Gerald Audenis 
Subject:  by 


>From the E.P.          "Sick and Tired"
from :   *


I know it was the easiest song... 
Anyway, I'm working hard on carnival and others...
find at : 
Their homepage is worth it!!!!
and DON'T BE SHY and WRITE to the MAILING LIST!!!!!!!




e:--------2---7---------|------------7------------|
B:----0-3---3---10---7--|----------8---7---5-7-5--|
G:-----------------7----|----9-7-9----------------|
D:----------------------|-------------------------|
A:----------------------|-------------------------|
E:--3-------------------|--8----------------------|


e:--------2---7---------|-------------------------|
B:----0-3---3---10---7--|------------------8-7----|
G:-----------------7----|----9-7-9-7-9-7-9-----7--|
D:----------------------|-------------------------|
A:----------------------|-------------------------|
E:--3-------------------|--8----------------------|

For the refrain, the guitar plays the chords :

Am Am Am Am D

mvha+

gerald

Otros videos de esta canción
    477 exhibiciones
      • ½ Tono
      • A
      • Bb
      • B
      • C
      • Db
      • D
      • Eb
      • E
      • F
      • F#
      • G
      • Ab
    • Agregar a la lista

    Afinación de cifrado

    Afinador online

      OK