Cifra Club

Losing A Friend

The Cardigans

Tab de bajo: Principal
Tabbed By : dvanwyk
e-mail: *

 Tuning:Stanard
 Verse (Start at 0.18)
G|---------------------------------------------------------------|
D|---------------------------------------------------------------|
A|5~-----9~-2~-----9~-7~-----10~-5~----9~-2~----9~-7~----10~-5~--|
E|---------------------------------------------------------------|

 Pre-Chorus
G|------------------------------------------------------------------------|
D|----------------------------7-7-7-7-9-9-9-9-12-12-12-12-14-14-14-14-17--|
A|10-10-10-10-9-9-9-9-7-7-7-7---------------------------------------------|
E|------------------------------------------------------------------------|

 Chorus
G|---------------------------------|
D|---------------------------------|
A|8888-7777-5555-3333--------------|
E|--------------------3~----5~-3~--|

 Verse (Start at 1.39)
G|--------------------------------------------------------------------------|
D|---------------------2~---------------------------------------------------|
A|9~-2~----9~-7~--2-555-----10~-5~----9~-2~------2~--9~-7~--555-7~--10~-5~--|
E|------------------------------------------2-555----------7----------------|

 Pre-Chorus
 Chorus
 Pre-Chorus
 Outro x3
G|-------------------------------|
D|-------------------------------|
A|8888-7777-5555-3333------------|
E|--------------------3333-6666--|

 End Off (At 3.33)
G|---------------------------------------------------------------------------------|
D|---------------------------------------------------------------------------------|
A|---------------------------------------------------------------------------------|
E|5~-3~----------------------------------------------------------------------------|


| /  slide up
| \  slide down
| h  hammer-on
| p  pull-off
| ~  vibrato
| +  harmonic
| x  Mute note
===============================================================================
00:00 / 00:00
Otros videos de esta canción
Repetir
Otros videos de esta canción
Composición de Nina Persson / Peter Svensson
24 vistas

0 comentarios

Ver todos los comentarios

¿Lograste tocar?

0 Tocaron 0 Aún no

¡Graba un video tocando Losing A Friend y envíanoslo!

00:00 / 00:00
OK