Cifra Club

All We Know (feat. Phobe Ryan)

The Chainsmokers

Tablatura: Principal (guitarra)
Tom: C
Riff de introdução:
    C              F            Am            Am
E|-----0-----0-------3-----3-------0-----0-------0-----------------|
B|--1-----1-------1------1------1-----1-------1-----1--3-----------|
G|-----------------------------------------------------------------|
D|----------------3------------------------------------------------|
A|--3---------------------------0-------------0--------------------|
E|-----------------------------------------------------------------|

    C              F            Am            Am
E|-----0-----0-------3-----3-------0-----0-------0-----------------|
B|--1-----1-------1------1------1-----1-------1-----1--3-1---------|
G|-----------------------------------------------------------------|
D|----------------3------------------------------------------------|
A|--3---------------------------0-------------0--------------------|
E|-----------------------------------------------------------------|
(riff continua no verse e no pre-chorus)

Verse: 

C        F
Fighting flames of fire
Am         Am
Hang on to burning wires
C        F       Am      Am
We don't care anymore
C      F
Are we fading lovers?
Am      Am
We keep wasting colors
C     F                  Am     Am
Maybe we should let this go

Pre-Chorus:
      C                       F              Am      Am
We're falling apart, still we hold together
      C                      F             Am      Am
We've passed the end, so we chase forever
       C              F      Am    Am
'Cause this is all we know
      C               F     Am    Am
This feeling's all we know

Chorus:
             F              G
I'll ride my bike up to the world
         Am                        C
Down the streets right through the city
        F              G
I'll go everywhere you go
      Am            C
From Chicago to the coast
              F                  G
You tell me, "hit this and let's go 
          Am                     C
Blow the smoke right through the window"
       F              G    Am  C
'Cause this is all we know

Drop:

C   F   Am   Am
C   F        Am             Am
      'Cause this is all we know

C   F   Am   Am
C   F        Am             Am
      'Cause this is all we know

Verse: 

C     F
Never face each other 
Am      Am
One but different covers
C        F        Am     Am
We don't care anymore
C          F
Two hearts still beating
Am       Am
On with different rhythms
C     F                  Am     Am
Maybe we should let this go

Pre-Chorus:
      C                       F              Am      Am
We're falling apart, still we hold together
      C                      F             Am      Am
We've passed the end, so we chase forever
       C              F      Am    Am
'Cause this is all we know
      C               F     Am    Am
This feeling's all we know

   
Chorus:
             F              G
I'll ride my bike up to the world
         Am                        C
Down the streets right through the city
        F              G
I'll go everywhere you go
      Am            C
From Chicago to the coast
              F                  G
You tell me, "hit this and let's go 
          Am                     C
Blow the smoke right through the window"
       F              G    Am   C
'Cause this is all we know

Drop:

C   F   Am   Am

C   F        Am             Am
      'Cause this is all we know

C   F   Am   Am

C   F        Am             Am
      'Cause this is all we know
reproducciones 336
Acordes para:
    Composição: Andrew Taggart Nirob Islam Sara Hjellstrom Colaboración y revision:
    • Gustavo Rogerio

    0 comentarios

    mostrar más comentarios

    ¿Conseguiste tocar?

    4 tocaron 0 aún no

    ¡Graba un vídeo tocando All We Know (feat. Phobe Ryan) y envianoslo!

    00:00 / 00:00
    outros vídeos desta música
    repetir qualidade Automático
    Outros vídeos desta música
    00:00 / 00:00
    Automático
    OK