Cifra Club

Don't Let Me Down

The Chainsmokers

Tablatura: Principal (guitarra)
Tom: G#m (con acordes en la forma de F#m) Capo en 2ª casa
[Intro] D  A  E  F#m
        D  A  E  F#m

E|-------9-9-9------------------------------|
B|-7-7-5-------9-9-9-9h10-10-9--------------|
G|------------------------------------------| (2x)
D|------------------------------------------|
A|------------------------------------------|
E|------------------------------------------|

[Primeira Parte]

D          A
  Crashing,  hit a wall
E           F#m
  Right now I need a miracle
D               A              E  F#m
  Hurry up now, I need a miracle

D          A
  Stranded, reaching out
E              F#m
  I call your name but you're not around
D             A                    E   F#m
  I say your name but you're not around

[Pré-Refrão]

   D                       A
I need you, I need you, I need you right now
E                   F#m
  Yeah, I need you right now
    D                           A
So don't let me, don't let me, don't let me down
E                        F#m
  I think I'm losing my mind now

[Refrão]

            D               A
It's in my head, darling I hope
                E                         F#m
That you'll be here, when I need you the most
    D                           A
So don't let me, don't let me, don't let me down
E               F#m
  Don't let me down

[Riff]

E|------------------------------------------|
B|-2/7-7-7-5--2/7-7-7-7-5--2/7-7-7-2/7-7-7--|
G|------------------------------------------|
D|------------------------------------------|
A|------------------------------------------|
E|------------------------------------------|

E|------------------------------------------|
B|-2/7-7-7-7-5------------------------------|
G|------------------------------------------|
D|------------------------------------------|
A|--------------5/9-9-9-7--5/9-9-9-9-7------|
E|------------------------------------------|

E|------------------------------------------|
B|------------------------------------------|
G|------------------------------------------|
D|------------------------------------------|
A|-5/9-9-9-5/9-9-9--5/9-9-9-9-7-------------|
E|------------------------------------------|

F#m
   Don't let me down
Don't let me down, down, down
Don't let me down, don't let me down, down, down

[Segunda Parte]

D         A
  Running  out of time
E            F#m
  I really thought you were on my side
D                  A            E   F#m
  But now there's nobody by my side

[Pré-Refrão]

   D                       A
I need you, I need you, I need you right now
E                   F#m
  Yeah, I need you right now
    D                           A
So don't let me, don't let me, don't let me down
E                        F#m
  I think I'm losing my mind now

[Refrão]

            D               A
It's in my head, darling I hope
                E                         F#m
That you'll be here, when I need you the most
    D                           A
So don't let me, don't let me, don't let me down
E               F#m
  Don't let me down

[Riff]

E|------------------------------------------|
B|-2/7-7-7-5--2/7-7-7-7-5--2/7-7-7-2/7-7-7--|
G|------------------------------------------|
D|------------------------------------------|
A|------------------------------------------|
E|------------------------------------------|

E|------------------------------------------|
B|-2/7-7-7-7-5------------------------------|
G|------------------------------------------|
D|------------------------------------------|
A|--------------5/9-9-9-7--5/9-9-9-9-7------|
E|------------------------------------------|

E|------------------------------------------|
B|------------------------------------------|
G|------------------------------------------|
D|------------------------------------------|
A|-5/9-9-9-5/9-9-9--5/9-9-9-9-7-------------|
E|------------------------------------------|

F#m
    Don't let me down
Don't let me down, down, down
Don't let me down, down, down
Don't let me down, down, down
Don't let me down, don't let me down, down, down

[Ponte]

D  A  E                          F#m
      Oh, I think I'm losing my mind now, yeah, yeah, yeah
D  A  E                          F#m
      Oh, I think I'm losing my mind now, yeah, yeah

[Pré-Refrão]

   D                       A
I need you, I need you, I need you right now
E                   F#m
  Yeah, I need you right now
    D                           A
So don't let me, don't let me, don't let me down
E                        F#m
  I think I'm losing my mind now

[Refrão]

            D               A
It's in my head, darling I hope
                E                         F#m
That you'll be here, when I need you the most
    D                           A
So don't let me, don't let me, don't let me down
E               F#m
  Don't let me down
D  A  E               F#m
        Don't let me down
D  A  E               F#m
        Don't let me down
D  A  E               F#m
        Don't let me down
D  A                  E                  F#m
     So don't let me down, don't let me down
              D   A
Don't let me down
E               F#m
  Don't let me down, down, down

[Final] D  A  E  F#m
reproducciones 8.296
Acordes para:

    0 comentarios

    mostrar más comentarios

    ¿Conseguiste tocar?

    27 tocaron 9 aún no

    ¡Graba un vídeo tocando Don't Let Me Down y envianoslo!

    00:00 / 00:00
    outros vídeos desta música
    repetir qualidade Automático
    Outros vídeos desta música
    00:00 / 00:00
    Automático
    OK