Cifra Club

And Then Came Then

The Chariot

Cifrado: Versão 2 (guitarra y guitarra eléctrica)
tono: C
Tabbed by:Hxc Fatboi
Email:D*

Tuning:Drop C

D|--------------------------------------------------------------------------|
A|-----------------------------------------------------------------------|
F|--------------------------------------------------------------------------|
C|-444444-0000--444444-00002040---444444-00002-444444-00002040--------|
G|-444444-0000--------444444-00002040---444444-00002-444444-00002040--------|
C|-444444-0000--------444444-00002040---444444-00002-444444-00002040--------|

GUITAR 1 (IM NOT 100% SURE ON THIS PART)
D|------------------ -----------------------| X2
A|------------------ -----------------------|
F|------------------ -----------------------|
C|0---0---0---0-010- ---0---0---0----0-010--|
G|0---0---0---0-010- -- 0---0---0----0-010--|
C|0---0---0---0-010- ---0---0---0----0-010--|

GUITAR 2
D|0---0---0---0-000- -0---0---0---0--0-000--| X2
A|0---0---0---0-000-  0---0---0---0--0-000--|
F|0---0---0---0-000- -0---0---0---0--0-000--|
C|0---0---0---0-000-  0---0---0---0--0-000--|
G|0---0---0---0-000- -0---0---0---0--0-000--|
C|0---0---0---0-000- -0---0---0---0--0-000--|

D|----------------------|
A|-----14-----14--14-14-|
F|-----17---17--17---17-|
C|-0000--000------------|
G|-0000--000------------|
C|-0000--000------------|

D|-----------------------| X3
A|-----14------------14--|
F|-----17------------17--|
C|-0000---000-0-0-0-0----|
G|-0000---000-0-0-0-0----|
C|-0000---000-0-0-0-0----|

D|-----------------------| X2
A|-----14------------14--|
F|-----17------------17--|
C|-0000---000-0-0-0-0----|
G|-0000---000-0-0-0-0----|
C|-0000---000-0-0-0-0----|

D|---------------------------------------|
A|----14------------14------14-----------|
F|----17------------17------17-----------|
C|-000---000-0-0-0-0---00000---0-0-0-0-0-|
G|-000---000-0-0-0-0---00000---0-0-0-0-0-|
C|-000---000-0-0-0-0---00000---0-0-0-0-0-|

D|---------------------------------------------|
A|---------------------------------------------|
F|---------------------------------------------|
C|-0000---000-0-0-0-0----000---000-0-0-0-0-----|
G|-0000---000-0-0-0-0----000---000-0-0-0-0--|
C|-0000---000-0-0-0-0----000---000-0-0-0-0-----|

D|-----------------------------------------|
A|-----------------------------------------|
F|-----------------------------------------|
C|-0000---000-0-0-0-0----000---000-0-0-0-0-|
G|-0000---000-0-0-0-0----000---000-0-0-0-0-|
C|-0000---000-0-0-0-0----000---000-0-0-0-0-|

D|-----------------------|
A|-------------17-17-17~-|
F|-----------------------|
C|-0000---000--15-15-15~-|
G|-0000---000------------|
C|-0000---000------------|

D|------------------------------------------| x6 
A|------------------------------------------|
F|------------------------------------------|
C|-0000---000-0-0-0-0----0000---000-0-0-0-0-|
G|-0000---000-0-0-0-0----0000---000-0-0-0-0-|
C|-0000---000-0-0-0-0----0000---000-0-0-0-0-|

D|-------------| x8
A|-------------|
F|-------------|
C|-0000---0000-|
G|-0000---0000-|
C|-0000---0000-|

D|---------------------|  x4
A|---------------------|
F|---------------------|
C|-0-0-0-0---0-0-0-0---|
G|-0-0-0-0---0-0-0-0---|
C|-0-0-0-0---0-0-0-0---|

D|---------------|
A|---------------|
F|---------------|
C|-0---0---0---0-|
G|-0---0---0---0-|
C|-0---0---0---0-|


SLOW PART BEFORE THE BREAKDOWN

GUITAR 1 (RYTHUM)

D|---------------------------------------------| X2 THEN...
A|---------------------------------------------|
F|---------------------------------------------|
C|-22222222--55555555--44444444--77777777------|
G|-22222222--33333333--22222222--55555555------|
C|-22222222------------------------------------|

D|----------------------------------------------------| x2
A|----------------------------------------------------|
F|-99999999-55555555-12121212121212-77777777----------|
C|----------------------------------------------------|
G|-77777777-33333333-10101010101010-55555555----------|
C|----------------------------------------------------|

GUITAR 2 (LEAD)
D|--------------------------------------------------------| X4 THEN...
A|--------------------------------------------------------|
F|-----------55555555--444444/11^11-11-11-/7777/12^-11-11-|
C|-22222222-----------------------------------------------|
G|-22222222--33333333--222222/-9^-9--9--9-/5555/10^--9--9-|
C|-22222222-----------------------------------------------|

D|----------------------------------------------------| THEN...
A|----------------------------------------------------|
F|-171717171717/14141414/161616161616/11-11-11-11-11--|
C|----------------------------------------------------|
G|-151515151515/12121212/141414141414/-9--9--9--9--9--|
C|----------------------------------------------------|

D|-----------------------------------------------------| THEN...
A|-----------------------------------------------------|
F|-171717171717/14141414/161616161616/ 12-12-12-12-12--|
C|-----------------------------------------------------|
G|-151515151515/12121212/141414141414/-10--9--9--9--9--|
C|-----------------------------------------------------|

D|--------------------------------------------------------------------------|
A|--------------------------------------------------------------------------|
F|16171714161616^16^16^16^16^16^16^1717171717171414141416161612121212121212^|
C|--------------------------------------------------------------------------|
G|--------------------------------------------------------------------------|
C|--------------------------------------------------------------------------|

GUITAR 1 (breakdown)
D|--------------------------------------------------------------------------|
A|9---9---9---9-9-9---9---9---9--9-9-9---9---9--9--9-9-9---9--9--9--9----9--|
F|12--12--12--121212---12--12--12-121212--12--12-12-121212--12-12-12-12---12|
C|--------------------------------------------------------------------------|
G|--------------------------------------------------------------------------|
C|-----------------------------------------------------------------------00-|

GUITAR 2
D|--------------------------------------------------------------------------|
A|--8---8---8---8-8-8--8---8---8---8-8-8-----8---8--8-8-8-8---8--8--8--8---8|
F|--11--11--11--111111-11--11--11--111111----11--11-11111111--11-11-11-11-11|
C|--------------------------------------------------------------------------|
G|--------------------------------------------------------------------------|
C|--------------------------------------------------------------------------|




 

THATS ITS!
Composición de The Chariot
    • ½ Tono
    • A
    • Bb
    • B
    • C
    • Db
    • D
    • Eb
    • E
    • F
    • F#
    • G
    • Ab
  • Agregar a la lista

    0 comentarios

    Ver todos los comentarios

    ¿Lograste tocar?

    0 Tocaron 0 Aún no

    ¡Graba un video tocando And Then Came Then y envíanoslo!

    00:00 / 00:00
    Outros vídeos desta música
    Repetir Calidad Automático
    Outros vídeos desta música
    00:00 / 00:00
    Automático
    OK