Cifra Club

Dreams

The Cranberries

Tab de bajo: Principal
Selo Cifra Club: esta cifra foi revisada para atender aos critérios oficiais da nossa Equipe de Qualidade.
tono: Afinación:
G --------------------------------------------------------------------
D --------------------------------------------------------------------
A --------------------------------------------0-0-0-0-0-0-0-0---0-0-0-
E --------0-0-0-0-0-0-0-0---0-0-0-0-0-0-0-0---------------------------

G --------------------------------------------------------------------
D --------------------------------------------------------------------
A 0-0-0-0-0---2-2-2-2-2-2-2-2---2-2-2-2-2-2-2-2-----------------------
E ------------------------------------------------0-0-0-0-0-0-0-0---0-

G --------------------------------------------------------------------
D --------------------------------------------------------------------
A ------------------------------------------------0-0-0-0-0-0-0-0---0-
E 0-0-0-0-0---0-0-0-0-0-0-0-0---0-0-0-0-0-0-0-0-----------------------

G --------------------------------------------------------------------
D --------------------------------------------------------------------
A 0-0-0-0-0-0-0---2-2-2-2-2-2-2-2---2-2-2-2-2-2-2-2-------------------
E ----------------------------------------------------0-0-0-0-0-0-0-0-

G --------------------------------------------------------------------
D --------------------------------------------------------------------
A --------------------------------------------------------0-0-0-0-0-0-
E --0-0-0-0-0-0-0-0---0-0-0-0-0-0-0-0---0-0-0-0-0-0-0-0---------------

G --------------------------------------------------------------------
D --------------------------------------------------------------------
A 0-0---0-0-0-0-0-0-0-0---2-2-2-2-2-2-2-2---2-2-2-2-2-2-2-2-----------
E ------------------------------------------------------------0-0-0-0-

G --------------------------------------------------------------------
D --------------------------------------------------------------------
A ----------------------------------------------------------------0-0-
E 0-0-0-0---0-0-0-0-0-0-0-0---0-0-0-0-0-0-0-0---0-0-0-0-0-0-0-0-------

G --------------------------------------------------------------------
D --------------------------------------------------------------------
A 0-0-0-0-0-0---0-0-0-0-0-0-0-0---2-2-2-2-2-2-2-2---2-2-2-2-2-2-2-2---
E --------------------------------------------------------------------

G --------------------------------------------------------------------
D --------------------------------------------------------------------
A --------------------------------------------------------------------
E 0-0-0-0-0-0-0-0---0-0-0-0-0-0-0-0---0-0-0-0-0-0-0-0---0-0-0-0-0-0-0-

G --------------------------------------------------------------------
D --------------------------------------------------------------------
A ----0-0-0-0-0-0-0-0---0-0-0-0-0-0-0-0---2-2-2-2-2-2-2-2---2-2-2-2-2-
E 0-------------------------------------------------------------------

G --------------------------------------------------------------------
D --------------------------------------------------------------------
A 2-2-2---------------------------------------------------------------
E --------0-0-0-0-0-0-0-0---0-0-0-0-0-0-0-0---0-0-0-0-0-0-0-0---0-0-0-

G --------------------------------------------------------------------
D --------------------------------------------------------------------
A ------------0-0-0-0-0-0-0-0---0-0-0-0-0-0-0-0---2-2-2-2-2-2-2-2---2-
E 0-0-0-0-0-----------------------------------------------------------

G --------------------------------------------------------------------
D --------------------------------------------------------------------
A 2-2-2-2-2-2-2-------------------------------------------------------
E ----------------0-0-0-0-0-0-0-0---0-0-0-0-0-0-0-0---3-3-3-3---3-3-3-

G --------------------------------------------------------------------
D ----------------------------------------------------------------0-0-
A ----3-3-3-3---3-3-3-3-3-------------------------3-3-3-3---3-3-3-----
E 3-------------------------3-3-3-3---3-3-3-3-3-----------------------

G --------------------------------------------------------------------
D --------------------------------------------------------------------
A --------------------------------------0-0-0-0-0-0-0-0---0-0-0-0-0-0-
E --0-0-0-0-0-0-0-0---0-0-0-0-0-0-0-0---------------------------------

G --------------------------------------------------------------------
D --------------------------------------------------------------------
A 0-0---2-2-2-2-2-2-2-2---2-2-2-2-2-2-2-2-----------------------------
E ------------------------------------------0-0-0-0-0-0-0-0---0-0-0-0-

G --------------------------------------------------------------------
D --------------------------------------------------------------------
A ----------------------------------------------0-0-0-0-0-0-0-0---0-0-
E 0-0-0-0---0-0-0-0-0-0-0-0---0-0-0-0-0-0-0-0-------------------------

G --------------------------------------------------------------------
D --------------------------------------------------------------------
A 0-0-0-0-0-0---2-2-2-2-2-2-2-2---2-2-2-2-2-2-2-2---------------------
E --------------------------------------------------0-0-0-0-0-0-0-0---

G --------------------------------------------------------------------
D --------------------------------------------------------------------
A ------------------------------------------------------0-0-0-0-0-0-0-
E 0-0-0-0-0-0-0-0---0-0-0-0-0-0-0-0---0-0-0-0-0-0-0-0-----------------

G --------------------------------------------------------------------
D --------------------------------------------------------------------
A 0---0-0-0-0-0-0-0-0---2-2-2-2-2-2-2-2---2-2-2-2-2-2-2-2-------------
E ----------------------------------------------------------0-0-0-0-0-

G --------------------------------------------------------------------
D --------------------------------------------------------------------
A --------------------------------------------------------------0-0-0-
E 0-0-0---0-0-0-0-0-0-0-0---0-0-0-0-0-0-0-0---0-0-0-0-0-0-0-0---------

G --------------------------------------------------------------------
D --------------------------------------------------------------------
A 0-0-0-0-0---0-0-0-0-0-0-0-0---2-2-2-2-2-2-2-2---2-2-2-2-2-2-2-2-----
E ------------------------------------------------------------------0-

G --------------------------------------------------------------------
D --------------------------------------------------------------------
A --------------------------------------------------------------------
E 0-0-0-0-0-0-0---0-0-0-0-0-0-0-0---0-0-0-0-0-0-0-0---0-0-0-0-0-0-0-0-

G --------------------------------------------------------------------
D --------------------------------------------------------------------
A --0-0-0-0-0-0-0-0---0-0-0-0-0-0-0-0---2-2-2-2-2-2-2-2---2-2-2-2-2-2-
E --------------------------------------------------------------------

G --------------------------------------------------------------------
D --------------------------------------------------------------------
A 2-2-----------------------------------------------------------------
E ------0-0-0-0-0-0-0-0---0-0-0-0-0-0-0-0---0-0-0-0-0-0-0-0---0-0-0-0-

G --------------------------------------------------------------------
D --------------------------------------------------------------------
A ----------0-0-0-0-0-0-0-0---0-0-0-0-0-0-0-0---2-2-2-2-2-2-2-2---2-2-
E 0-0-0-0-------------------------------------------------------------

G --------------------------------------------------------------------
D --------------------------------------------------------------------
A 2-2-2-2-2-2---------------------------------------------------------
E --------------0-0-0-0-0-0-0-0---0-0-0-0-0-0-0-0---0-0-0-0-0-0-0-0---

G --------------------------------------------------------------------
D --------------------------------------------------------------------
A ------------------0-0-0-0-0-0-0-0---0-0-0-0-0-0-0-0---2-2-2-2-2-2-2-
E 0-0-0-0-0-0-0-0-----------------------------------------------------

G --------------------------------------------------------------------
D --------------------------------------------------------------------
A 2---2-2-2-2-2-2-2-2-------------------------------------------------
E ----------------------0-0-0-0-0-0-0-0---0-0-0-0-0-0---0-0-0-0-0-0-0-

G --------------------------------------------------------------------
D --------------------------------------------------------------------
A ----------------------0-0-0-0-0-0-0-0---0-0-0-0-0-0-0-0---2-2-2-2-2-
E 0---0-0-0-0-0-0-0-0-------------------------------------------------

G --------------------------------------------------------------------
D --------------------------------------------------------------------
A 2-2-2---2-2-2-2-2-2-2-2---------------------------------------------
E --------------------------0-0-0-0-0-0-0-0---0-0-0-0-0-0---0-0-0-0-0-

G --------------------------------------------------------------------
D --------------------------------------------------------------------
A --------------------------0-0-0-0-0-0-0-0---0-0-0-0-0-0-0-0---2-2-2-
E 0-0-0---0-0-0-0-0-0-0-0---------------------------------------------

G -------------------------------------------------------------
D -------------------------------------------------------------
A 2-2-2-2-2---2-2-2-2-2-2-2-2----------------------------------
E ------------------------------0-0-0-0-0-0-0-0---0-0-0-0-0-0--



_______________________________________________________
Contribuição: Marcelo Souza Nery(msnery@zaz.com.br)
Otros videos de esta canción
    4.851 exhibiciones

    Afinación de cifrado

    Afinador online

    OK