Cifra Club

Ridiculous Thoughts

The Cranberries

Cifrado: Principal (guitarra y guitarra eléctrica)
tono: C
[Intro]

E|-----------------------------------------------------------------------|
B|---5-----5-----5----8-----8-----5------3-----3-----3-----1-----1-----1-|
G|-----6-----6----------6-----6------------4-----4-----------2-----2-----| (6x)
D|-7-----7-----7---7------7-----7-----5------5-----5-----3-----3-----3---|
A|-----------------------------------------------------------------------|
E|-----------------------------------------------------------------------|

E|--------------------------|
B|--5-----------------------|
G|--6-----------------------|
D|--7-----------------------|
A|--------------------------|
E|--------------------------|

 Am      C   G
Twister, oh does anyone see through you?
          Am      C         G
You're a twister, oh an animal
               Am    C      G
But you're so happy now, I didn't go along with you
    Am    C              G
So happy now, na na na na
                  Am         C
But you're gonna have to hold on
              G
You're gonna have to hold on
              Am           C
You're gonna have to hold on
          G
Hold on, hold on
                Am         C
Or we're gonna have to move on
             G
We're gonna have to move on
                Am         C
Or we're gonna have to move on
         G
Move on, move on

 F     G      Am           Em
     I feel alright and I cried so hard
      F                    G
The ridiculous thoughts, oh
         Am                Em
I feel alright, alright, alright, alright

 Am     C       G
Twister oh, I shouldn't have trusted in you
 Am     C             G
Twister oh, a na na na
                Am     C
It's not gonna happen now
        G
You're not gonna make fun of me
 Am     C              G
Happen now, na na na na

                 Am         C
But you're gonna have to hold on
              G
You're gonna have to hold on
              Am           C
You're gonna have to hold on
          G
Hold on, hold on
                Am         C
Or we're gonna have to move on
             G
We're gonna have to move on
                Am         C
Or we're gonna have to move on
         G
Move on, move on

 F     G     Am           Em
    I feel alright and I cried so hard
      F                    G
The ridiculous thoughts, oh
         Am                Em
I feel alright, alright, alright, alright
 F  G              Am           Em
    We should have lied but I cried so hard
     F                     G
The ridiculous thoughts, ah
               Am    
We should have lied, have lied
      Em
Have lied, have lied

                  F  
But you're gonna have to hold on
              G
You're gonna have to hold on
              Am
You're gonna have to hold on
              Em
You're gonna have to hold on
              F
You're gonna have to hold on
              G
You're gonna have to hold on
              Am
You're gonna have to hold on
              Em
You're gonna have to hold on
                    F
Well, you're gonna have to hold on
              G
You're gonna have to hold on
             Am
Hold on, hold on, hold on
             Em
Hold on, hold on, hold on
                    F
Well, you're gonna have to hold on
              G                 Am    Em
You're gonna have to hold on to me

[Final] F  G  Am  Em
        F  G  Am  Em
        F  G  Am  Em
        F  G  Am  Em

[Dedilhado - Refrão]

( F  G  Am  Em )

E|--0------0-----0----0------0-----0----0------0-----0---0------0------0--|
B|----1------1----------0------0----------1------1---------0------0-------|
G|------2------2----------0------0----------2------2---------0------0-----|
D|-3----------------5-----------------------------------------------------|
A|------------------------------------0-----------------------------------|
E|-----------------------------------------------------0------------------|
00:00 / 00:00
Otros videos de esta canción
Repetir
Otros videos de esta canción
Compositor no encontrado.
Colaboración y revisión:
2.531 vistas
    • ½ Tono
    • A
    • Bb
    • B
    • C
    • Db
    • D
    • Eb
    • E
    • F
    • F#
    • G
    • Ab
  • Agregar a la lista

    0 comentarios

    Ver todos los comentarios

    ¿Lograste tocar?

    4 Tocaron 0 Aún no

    ¡Graba un video tocando Ridiculous Thoughts y envíanoslo!

    00:00 / 00:00
    OK