Cifra Club

Wanted

The Cranberries

Cifrado: Principal (guitarra y guitarra eléctrica)
tono: F
Intro: Dm                Bb                 F                 C

          Dm                Bb                 F                 C
E|-------------------------------------------------------------------------|
B|--------6----------------6------------------------------------8----------|
G|--------7----------------7------------------10----------------9----------|
D|--------7----------------8------------------10----------------10---------|
A|--------5----------------8------------------8-----------------10---------|
E|-------------------------6------------------------------------8----------|

E|---------------------------|
B|---------------------------|
G|-----------10--------------|
D|-----10h12----12-----------|
A|---------------------------|
E|---------------------------|

Verso (guitarra de fundo):

E|---------------------------|
B|--10--8-----------10--8----|
G|---------10--7-------------|
D|---------------------------|
A|---------------------------|
E|---------------------------|

Dm            Bb
Sitting in an armchair,
   F               C
my head between my hands
   Dm               Bb
I wouldn't have to be like this 
   F               C
if you'd only understand

Dm          Bb
Too many misundertandings 
F            C
causing such delay
    Dm            Bb
And If it doesn't work like this 
          F           C
well I'll try another way

Dm Bb    F                   C
Ohhhh If this is the way you wanted it
Dm Bb   F           C
Ohhhh I didn't understand
Dm Bb    F                   C
Ohhhh If this is the way you wanted it
Dm Bb   F           C
Ohhhh I didn't understand

    Dm              Bb
You know that all I wanted 
       F                C
was to be there by your side.
    Dm            Bb
And if you didn't want it 
         F           C
Then you shouldn't have denied.

    Dm                 Bb
You knew that you were someone special
F              C
right from the start
    Dm              Bb
But if you treat me badly
        F          C
we'd be better off apart.

Dm Bb    F                   C
Ohhhh If this is the way you wanted it
Dm Bb   F           C
Ohhhh I didn't understand
Dm Bb    F                   C
Ohhhh If this is the way you wanted it
Dm Bb   F           C
Ohhhh I didn't understand

Solo:

E|----------------------------|
B|------------10--------------|
G|--10-9-7/10--------10-9-7---|
D|----------------------------|
A|----------------------------|
E|----------------------------|

Parte final:


E|-----------------------------------------|
B|------------10---------------------------|
G|--10-9-7/10--------10-9-7----10-9-7------|
D|-------------------------------------10--|
A|-----------------------------------------|
E|-----------------------------------------|


Dm Bb F C  x 9
Dm Bb F

Termina em C
00:00 / 00:00
Otros videos de esta canción
Repetir
Otros videos de esta canción
Composición de Dolores O'Riordan / Noel Hogan
Colaboración y revisión:
  • Gabriel Moradillo
  • Italo Roberto
229 vistas
    • ½ Tono
    • A
    • Bb
    • B
    • C
    • Db
    • D
    • Eb
    • E
    • F
    • F#
    • G
    • Ab
  • Agregar a la lista

    0 comentarios

    Ver todos los comentarios

    ¿Lograste tocar?

    1 Tocaron 0 Aún no

    ¡Graba un video tocando Wanted y envíanoslo!

    00:00 / 00:00
    OK