Cifra Club

Zombie

The Cranberries

Tablatura: Principal (guitarra)
reproducciones 97.731
Tono: Em
[Intro]  Em  C  G  D/F#
         E5  C5  G5  F#5


E|-7/8-5/7-3/5-| -2/3\2-------|
B|-------------| -------3-3-0-|
G|-------------| -------------|
D|-------------| -------------|
A|-------------| -------------|
E|-------------| -------------|

Em         C
  Another head hangs lowly
  G                D/F#
Child is slowly taken
Em                  C
  And the violence caused such silence
  G            D/F#
Who are we mistaken
         Em
But you see, it's not me
          C
It's not my family
         G
In your head, in your head
          D/F#
They are fighting
            Em
With their tanks, and their bombs
           C
And their bones, and their guns
         G                            D/F#
In your head, in your head they are cryin'

         Em            C
In your head, in your head
    G               D/F#
Zombie, zombie, zombie êh êh
                Em            C
What's in your head, in your head
    G            D/F#
Zombie, zombie, zombie êh êh êh ôh

( Em  C  G  D/F# )

E|-7/8-5/7-3/5-| -2/3\2-------|
B|-------------| -------3-3-0-|
G|-------------| -------------|
D|-------------| -------------|
A|-------------| -------------|
E|-------------| -------------|

Em         C
  Another mother's breakin'
 G              D/F#
Heart is taking over
Em                   C
  When the violence causes such silence
 G             D/F#
We must be mistaken
          Em                     C
It's the same old theme since 1916
         G
In your head,
                            D/F#
In your head they're still fightin'
            Em
With their tanks and their bombs
           C
And their bones and their guns
         G                           D/F#
In your head, in your head they are dying


Solo:
E|-7/8----5/7--------------| -7/8----5/7---7---7---7--|-7/8-----5/7---7---7---7--|
B|-------------------------| -------------------------|--------------------------|
G|-------------------------| -------------------------|--------------------------|
D|-------------------------| -------------------------|--------------------------|
A|-------------------------| -------------------------|--------------------------|
E|-------------------------| -------------------------|--------------------------|

E|-7/8-----5/7--7-7-7-7-7-7| -7/8-----5/7--7---7---7-7|-7/8-----5/7--7---7---7-7|
B|--------------7-7-7-7-7-7| -7/8-----5/7--7---7---7-7|-7/8-----5/7--7---7---7-7|
G|-------------------------| -------------------------|-------------------------|
D|-------------------------| -------------------------|-------------------------|
A|-------------------------| -------------------------|-------------------------|
E|-------------------------| -------------------------|-------------------------|

E|-7/8-----5/7-------------| -7\5-----5------7-----10-|-10/12--12\10-10---10--10|
B|-7/8-----5/7-------------| -7\5-----5------7-----10-|-10/12--12\10-10---10--10|
G|-------------------------| -------------------------|-------------------------|
D|-------------------------| -------------------------|-------------------------|
A|-------------------------| -------------------------|-------------------------|
E|-------------------------| -------------------------|-------------------------|

E|-10/12--12\10--10---10-10| -10\7----7---------------|-7\5----5/7----7------7-7|
B|-10/12--12\10--10---10-10| -10\7----7---------------|-7\5----5/7----7------7-7|
G|-------------------------| -------------------------|-------------------------|
D|-------------------------| -------------------------|-------------------------|
A|-------------------------| -------------------------|-------------------------|
E|-------------------------| -------------------------|-------------------------|

E|-7/8-----5/7----7-----7-7| -7/8-----5/7----7-----7-7|-7/8----5/7--------------|
B|-7/8-----5/7----7-----7-7| -7/8-----5/7----7-----7-7|-7/8----5/7--------------|
G|-------------------------| -------------------------|-------------------------|
D|-------------------------| -------------------------|-------------------------|
A|-------------------------| -------------------------|-------------------------|
E|-------------------------| -------------------------|-------------------------|

E|-7\5------5------------5-| -7-----------------------|
B|-7\5------5------------5-| -7-----------------------|
G|-------------------------| -9-----------------------|
D|-------------------------| -9-----------------------|
A|-------------------------| -7-----------------------|
E|-------------------------| -0-----------------------|
Acordes para:

    0 comentarios

    mostrar más comentarios

    ¿Conseguiste tocar?

    198 tocaron 11 aún no

    ¡Graba un vídeo tocando Zombie y envianoslo!

    00:00 / 00:00
    outros vídeos desta música
    repetir qualidade Automático
    Outros vídeos desta música
    00:00 / 00:00
    Automático
    OK