Cifra Club

A Chain Of Flowers

The Cure

Tablatura: Principal (guitarra)
Tom: G
[Intro]

[Parte 1]

E|-----0-----0-----|-----0-----0------|-----0-----0-----|-----0------0------|
B|---0-----0----0--|---0-----0-----0--|---0-----0-----0-|---0------0------0-|
G|-4-----4----4----|-2-----2-----2----|-0-----0-----0---|-2------2------2---|
D|-----------------|------------------|-----------------|-------------------|
A|-----------------|------------------|-----------------|-------------------|
E|-----------------|------------------|-----------------|-------------------|
 
[Parte 2]

E|-|------------------|------------------|------------------|-----------------|
B|-|-----0------0-----|-----0------0-----|-----0-----0------|-----0-----0-----|
G|-|---0------0-----0-|---0------0-----0-|---0-----0--------|---0-----0-----0-|
D|-|-5------5-----5---|-4------4-----4---|-5-----5-----7-7--|-4-----4-----4---|
A|-|------------------|------------------|------------------|-----------------|
E|-|------------------|------------------|------------------|-----------------|

[Parte 3]

Guitarra 1:

     Em             D          C7M          Am7
E|------------------|------------------|-----------------|------------------|
B|-----0-----0------|-----0-----0------|-----------------|------------------|
G|---0-----0-----0--|---2-----2-----2--|-----0-----0-----|-----2-----2---2--|
D|-2-----2-----2----|-0-----0-----0----|---2-----2-----2-|---2-----2--------|
A|------------------|------------------|-3-----3-----3---|-0-----0-----0----|
E|------------------|------------------|-----------------|------------------|

Guitarra 2:

E|----------------|---------------------------|-------------|
B|----------------|---------------------------|-------------|
G|-12-12-12-12-11-|-11-11-11-11-9-4---(2)-(4)-|-4-4-4-4-2-0-|
D|----------------|---------------------------|-------------|
A|----------------|---------------------------|-------------|
E|----------------|---------------------------|-------------|

Em         D
Please wake up
       C7M      Am7
It's so dark and cold
Em         D
Please wake up
      C7M   Am7
I feel so  alone
      Em          D
And I feel so scared
           C7M        Am7
That you're going away
      Em          D     C7M    Am7
And I feel so scared

Em             D
All I want is summer
 C7M          Am7
Stories from before
    Em                D
Just like the day you tried to hide
 C7M                 Am7
Behind the churchyard wall
    Em             D
And fell asleep before I came
 C7M             Am7
I found you in a chain of flowers
Em                D
  Sleeping like a marble girl
C7M            Am7
  Sleeping in another world

G           Bm7/F#
  I'll never tell you
  G                 Bm7/F#
Of all the different ways
G                 Bm7/F#
all the different ways
    G           Bm7/F#
You make me so afraid

[Solo]  Em  D  C7M  Am7

[Parte 1]

E|----------------|---------------------|---------------|
B|----------------|---------------------|---------------|
G|-12-12-12-12-11-|-11-11-11-11-9-4-----|-4-4-4-5-4-2-0-|
D|----------------|---------------------|---------------|
A|----------------|---------------------|---------------|
E|----------------|---------------------|---------------|

[Parte 2]

E|-----------------------------|-----------|-----------------------|
B|-----------------------------|-----------|-----------------------|
G|-/2-/4-/7-/9-/11-/12-/14-/16-|-9-7-7-9-9-|-4-0-/4-4-4-2-0--------|
D|-----------------------------|-----------|-----------------4-2-4-|
A|-----------------------------|-----------|-----------------------|
E|-----------------------------|-----------|-----------------------|

E|----------------------|
B|----------------------|
G|-0-2-4-4------4-4-2-0-|
D|---------2--4---------|
A|----------------------|
E|----------------------|

Em         D
Please wake up
       C7M      Am7
It's so dark and cold
Em         D
Please wake up
      C7M   Am7
I feel so  alone
      Em          D
And I feel so scared
           C7M        Am7
That you're going away
      Em          D
And I feel so scared
           C7M        Am7
That you're going away

G           Bm7/F#
  I'll never tell you
  G                 Bm7/F#
Of all the different ways
G                 Bm7/F#
all the different ways
    G           Bm7/F#
You make me so afraid
reproducciones 19
Acordes para:
    Composição: Robert Smith Colaboración y revision:
    • Pablo Marcial

    0 comentarios

    mostrar más comentarios

    ¿Conseguiste tocar?

    1 tocaron 0 aún no

    ¡Graba un vídeo tocando A Chain Of Flowers y envianoslo!

    00:00 / 00:00
    outros vídeos desta música
    repetir qualidade Automático
    Outros vídeos desta música
    00:00 / 00:00
    Automático
    OK