Cifra Club

At Night

The Cure

Tab de bajo: Principal
AT NIGHT

Taken from the Fiction/Elektra/Rhino album Seventeen Seconds (1980/2005 Reissue)

Transcribed by: Damian Pamminger

Standard tuning: E A D G

Fig. 1 (7x) - 0:00
|-5-5-5-5-5-5-5-5-7-7-7-------------------|
|-0-0-0-0-0-0-0-0-0-0-0-------------------|
|-----------------------------------------|
|-----------------------------------------|

1:00 - pause

1:35 - Fig. 1 (4x)

2:09 (4x)
|------------------------------------|
|------------------------------------|
|-------------------6----------------|
|-3--------5-------------------------|

2:44 - Fig. 1 (4x)

3:19 (4x)
|----------------------------------|
|-------------------------------3--|
|-3------------5---6---------------|
|----------------------------------|

3:54 (4x)
|-----------------------------------|
|-----------------------------------|
|-5----------------6----------------|
|-----------------------------------|

4:29 (2x)
|-7----9----------9----7------8-------------------------------|
|-----------10---------------------10----12----10----8--10----|
|-------------------------------------------------------------|
|-------------------------------------------------------------|

|-7----9----------9----7------8----10----12----10----8--10-----|
|-----------10-------------------------------------------------|
|--------------------------------------------------------------|
|--------------------------------------------------------------|

5:04 (4x)
|-7----------------8----------------|
|-----------------------------------|
|-----------------------------------|
|-----------------------------------|

5:38 (1x)
|-7----------------|
|------------------|
|------------------|
|------------------|
00:00 / 00:00
Otros videos de esta canción
Repetir
Otros videos de esta canción
Composición de Lol Tolhurst / Mathieu Hartley / Robert Smith / Simon Gallup
107 exhibiciones
00:00 / 00:00
OK