Cifra Club

Before Three

The Cure

Tablatura: Principal (guitarra)
Tom: G
Tabbed by: River of souls 
Email: *

Tuning: E A D B G e 
  
  Intro:
e|---------------------------------------------------------------------------|
B|---------------------------------------------------------------------------|
G|---------------------------------------------------------------------------|
D|-12-12-12-12-12--10-10-10--9-9-9-9-9--8-8-8--12-12-12-12-12--14-14-14------|
A|---------------------------------------------------------------------------|
E|---------------------------------------------------------------------------|

e|---------------------------------------------------------------------------|
B|---------------------------------------------------------------------------|
G|---------------------------------------------------------------------------|
D|-7-7-7-7-7--5-5-5--4-4-4-4-4--2-2-2--0-0-0-0-0-----------------------------|
A|------------------------------------------------3-3-3----------------------|
E|---------------------------------------------------------------------------|

e|---------------------------------------------------------------------------|
B|---------------------------------------------------------------------------|
G|---------------------------------------------------------------------------|
D|-12-12-12-12-12--10-10-10--9-9-9-9-9--8-8-8--12-12-12-12-12--14-14-14------|
A|---------------------------------------------------------------------------|
E|---------------------------------------------------------------------------|

e|---------------------------------------------------------------------------|
B|---------------------------------------------------------------------------|
G|---------------------------------------------------------------------------|
D|-7-7-7-7-7--5-5-5--12-12-12-12-12--10-10-10--9-9-9-9-9--7-7-7--12-12-12-12-|
A|---------------------------------------------------------------------------|
E|---------------------------------------------------------------------------|

e|---------------------------------------------------------------------------|
B|---------------------------------------------------------------------------|
G|---------------------------------------------------------------------------|
D|-12-14-14-14--7-7-7-7-7--5-5-5--4-4-4-4-4--2-2-2--0-0-0-0-0---------0------|
A|-------------------------------------------------------------3-3-3--0------|
E|---------------------------------------------------------------------------|


  After Robert says "We go so in love”
e|-------------|
B|-------------|
G|-------------|
D|--7-7--5-5~--|
A|-------------|
E|-------------|

  Repeat the intro x 2

  Again after "we go so in love”

e|------------|
B|------------|
G|------------|
D|--7-7--5-5~-|
A|------------|
E|------------|

  Repeat the intro 2 times 

  This part after: "And every summer sun”   
e|-----------------------------|
B|-----------------------------|
G|-----------------------------|
D|--2-2-2--0-0-0---------------|
A|----------------3------------|
E|-----------------------------|
 
This part again after: "And every winter moon” 

Again at : "My happiest night”
Last part after: "Always Next to you”

                (Gm)    (Bm)
e|--------------3-------2------|
B|--------------3-------3------|
G|--------------3-------4------|
D|--7--5~~------5-------4------|
A|--------------5-------2------|
E|--------------3-------2------|

   



| /  slide up
| \  slide down
| h  hammer-on
| p  pull-off
| ~  vibrato
| +  harmonic
| x  Mute note
===============================================================================

reproducciones 153
Acordes para:

    0 comentarios

    mostrar más comentarios

    ¿Conseguiste tocar?

    0 tocaron 0 aún no

    ¡Graba un vídeo tocando Before Three y envianoslo!

    00:00 / 00:00
    outros vídeos desta música
    repetir qualidade Automático
    Outros vídeos desta música
    00:00 / 00:00
    Automático
    OK