Cifra Club

Boys Don't Cry

The Cure

Chords: Principal (acoustic and electric guitars)
tone: A
[Intro] A  Bm  C#m  D  C#m  Bm

[Solo] A  Bm  C#m  D  C#m  Bm 
       A  Bm  C#m  D  C#m  Bm 

[Tab - Solo Intro]

E|-------------------------------------------|
B|-2--2-2--3-5--2--2-2--3-5------------------|
G|-------------------------------------------|
D|-------------------------------------------|
A|-------------------------------------------|
E|-------------------------------------------|

E|---------2--4--5---2-----------------------|
B|-5--5-5---------------5-3------------------|
G|-------------------------------------------|
D|-------------------------------------------|
A|-------------------------------------------|
E|-------------------------------------------|

E|-------------------------------------------|
B|-2--2-2--3-5--2--2-2--3-5------------------|
G|-------------------------------------------|
D|-------------------------------------------|
A|-------------------------------------------|
E|-------------------------------------------|

E|---------2--4--5---2-----------------------|
B|-5--5-5---------------5-3-2----------------|
G|-------------------------------------------|
D|-------------------------------------------|
A|-------------------------------------------|
E|-------------------------------------------|

( A  Bm  C#m  D  C#m  Bm )

[Primeira Parte]

A                Bm       
I would say I'm sorry if
    C#m                   D
I thought that it would change your mind
 A                Bm        
But I know that this time
        C#m                 D
I have said too much, been to unkind

[Pré-Refrão]

C#m           Bm     
    I try to laugh about it
 C#m                  Bm
Cover it all up with lies
C#m           Bm        
    I try to laugh about it
 C#m                 Bm
Hiding the tears in my eyes

[Refrão]

      A   Bm         C#m  D  C#m  Bm
Cos' boys    don't cry
 A    Bm     C#m  D  C#m  Bm 
Boys don't cry

[Segunda Parte]

A                  Bm       
I would break down at your feet
     C#m               D
And beg forgiveness, plead with you
 A              Bm    
But I know that it's too late
     C#m                 D
And now there's nothing  I can do

[Pré-Refrão]

C#m              Bm     
    So I try to laugh about it
 C#m                  Bm
Cover it all up with lies
C#m           Bm        
    I try to laugh about it
 C#m                   Bm
Hiding the tears in my eyes

[Refrão]

      A           Bm  C#m  D  C#m  Bm
Cos' boys don't cry
 A    Bm     C#m  D  C#m  Bm 
Boys don't cry

[Terceira Parte]

A                  Bm             C#m    
I would tell you that I loved you if
                D
I thought that you would stay
 A              Bm          
But I know that it's no use that
 C#m            D
You've already gone away

[Ponte]

E                 F#m
  Misjudged your limit
E                 F#m
  Pushed you too far
E                F#m
  Took you for granted
    D                         E
I thought that you needed me more

 A                  Bm         
Now I would do most anything
    C#m                D
To get you back by my side
 A          Bm         
But I just keep on laughing
 C#m                   D
Hiding the tears in my eyes

[Refrão]

      A           Bm  C#m  D  C#m  Bm
Cos' boys don't cry
 A    Bm     C#m  D  C#m  Bm 
Boys don't cry
A  Bm              C#m  D  C#m  Bm
      Boys don't cry

[Final] A  Bm  C#m  D  C#m  Bm  A
00:00 / 00:00
Other videos of this song
Repeat
Other videos of this song
Composed by Laurence Tolhurst / Michael Dempsey / Robert Smith
133.860 views
  • Simplify chords
    • ½ Tone
    • A
    • Bb
    • B
    • C
    • Db
    • D
    • Eb
    • E
    • F
    • F#
    • G
    • Ab
  • Add to list
    00:00 / 00:00
    OK