Cifra Club

Burn

The Cure

Tablatura: Principal (guitarra)
Tom: G
Tuning: Standard 
 
 
Intro: 
 
|----------------------------| 
|----------------------------| 
|----------------------------| 
|----------------------------| 
|--5--3----------------------| 
|---------3------------------| 
 
Verse: 
 
|----------------------------| 
|----------------------------| 
|----------------------------| 
|-------------------------5--| 
|----------5-----------------| 
|--3--5-0---------3--5-0-----| 
 
 "Solo 1": 
 
|-----------------------------------------| 
|-----------------------------------------| 
|--------14--12---------------10-9-10-12--| 
|----9------------------------------------| 
|-----------------------------------------| 
|-----------------------------------------| 

"Solo 2": 
                                x2 
|-------------------------------| 
|-------------------------------| 
|---9--10--12---10-9-10-12------| 
|-------------------------------| 
|-------------------------------| 
|-------------------------------| 
 
                                x2 
|-------------------------------| 
|----------12-------------------| 
|---9--10----------10-9-10-12---| 
|-------------------------------| 
|-------------------------------| 
|-------------------------------| 

intro   x3 
verse   x2 
intro   x3 
verse   x9 
solo    x2 
solo 2  x6 
intro   x4 
verse   x8 
 
 
The only part of this tab that I'm unsure of is the verse.
reproducciones 489
Acordes para:

    0 comentarios

    mostrar más comentarios

    ¿Conseguiste tocar?

    1 tocaron 1 aún no

    ¡Graba un vídeo tocando Burn y envianoslo!

    00:00 / 00:00
    outros vídeos desta música
    repetir qualidade Automático
    Outros vídeos desta música
    00:00 / 00:00
    Automático
    OK