Cifra Club

Close to me

The Cure

Tablatura: Principal (guitarra)
Tom: B
G|-----------------|
D|-----------------|
A|-6-9-6-7-6-4-4-4-|
E|-----------------|

Verso:
G|-------------------------------------------------------------------------------------|
D|-----------------1--1----------------------------------------------------------------|
A|---2--2--2--2---------2--2--2--2--4--4---------------2--2----------------------------|
E|---------------------------------------------4--4--4--4--------2--2--2--2--0--0------|

Refrão:
G|-------------------------------------------------------------------------------------|
D|----------------1--1---------------1--1----------------1--1---------------1--1-------|
A|-------------------------------------------2--2--2--2---------2--2--2--2-------------|
E|---0--0--0--0--------0--0--0--0------------------------------------------------------|

Solo1 :

E|----------------------7-6-----6----------------|
B|-7-5-4------7-5-4---------7-------7------------|
G|-------4----------4----------------6-----------|
D|-----------------------------------------------|
A|-----------------------------------------------|
E|-----------------------------------------------|

Solo2 : oque fica no refrão

E|----------------------7-9-11---7-9-11----------|
B|---5-7-9----5-7-9------------------------------|
G|-----------------------------------------------|
D|-----------------------------------------------|
A|-----------------------------------------------|
E|-----------------------------------------------|

Intro: B5 G#5 F#5-E5 4x


B5
I've waited hours for this

I've made myself so sick
G#5                 F#5-E5
I wish I'd stayed asleep today
B5
I never thought this day would end
                          G#5
I never thought tonight could ever be
       F#5-E5
This close to me


B5 G#5 F#5-E5

B5
Just try to see in the dark

Just try to make it work
G#5               F#5-E5
To feel the fear before you're here
B5
I make the shapes come much too close

I pull my eyes out
G#5
Hold my breath
F|5-E5
And wait until I shake...


E5
But if I had your faith
                                B5
Then I could make it safe and clean
E5
If only I was sure
                                 B5
That my head on the door was a dream



B5 G#5 F#5-E5 2x

B5
I've waited hours for this

I've made myself so sick
G#5                 F#5-E5
I wish I'd stayed asleep today
B5
I never thought this day would end
                          G#5
I never thought tonight could ever be
       F#5-E5
This close to me


E5
But if I had your face
                           B5
I could make it safe and clean
E5
If only I was sure

That my head on the door
        B5
Was a dream

B5 G#5 F#5-E5 3x
reproducciones 3.803
Acordes para:
    Composição: Robert Smith Colaboración y revision:
    • Matheus
    • Felipe Camargo

    0 comentarios

    mostrar más comentarios

    ¿Conseguiste tocar?

    5 tocaron 1 aún no

    ¡Graba un vídeo tocando Close to me y envianoslo!

    00:00 / 00:00
    outros vídeos desta música
    repetir qualidade Automático
    Outros vídeos desta música
    00:00 / 00:00
    Automático
    OK