Cifra Club

Just Like Heaven

The Cure

Tablatura: Principal (guitarra)
Tom: A
[Intro] A  E  Bm  D
        A  E  Bm  D
        A  E  Bm  D
        A  E  Bm  D

E|--9-9-7-7-5-4-4-2-2-0-------------------------------|
B|-----------------------3-2-3-2-0-2------------------|
G|-----------------------------------2-2-2------------|
D|----------------------------------------------------|
A|----------------------------------------------------|
E|----------------------------------------------------|

E|-9-9-7-7-5-4-4-2-2-0--------------------------------|
B|---------------------3-2-3-2-0-2--------------------|
G|---------------------------------2-2-2--------------|
D|----------------------------------------------------|
A|----------------------------------------------------|
E|----------------------------------------------------|

E|----------0-2-2-4-4-5-7-7-9-9-10-12-12-10-10-9------|
B|-2-2-3-3--------------------------------------------|
G|----------------------------------------------------|
D|----------------------------------------------------|
A|----------------------------------------------------|
E|----------------------------------------------------|

E|--9-9-7-7-5-4-4-2-2-0-------------------------------|
B|----------------------2-3-2-0-2---------------------|
G|---------------------------------2-2-2--------------|
D|----------------------------------------------------|
A|----------------------------------------------------|
E|----------------------------------------------------|

[Primeira Parte]

  A
"Show me, show me, show me
         E
How you do that trick
    Bm                   D
The one that makes me scream" she said
     A                  E
"The one that makes me laugh" she said
Bm                   D
And threw her arms around my neck
   A              E            Bm
"Show me how you do it and I promise you
D              A           E
I promise that I'll run away
Bm             D
I'll run away with you"

[Solo] A  E  Bm  D
       A  E  Bm  D

E|--9-9-7-7-5-4-4-2-2-0-------------------------------|
B|-----------------------3-2-3-2-0-2------------------|
G|-----------------------------------2-2-2------------|
D|----------------------------------------------------|
A|----------------------------------------------------|
E|----------------------------------------------------|

E|-9-9-7-7-5-4-4-2-2-0--------------------------------|
B|---------------------3-2-3-2-0-2--------------------|
G|---------------------------------2-2-2--------------|
D|----------------------------------------------------|
A|----------------------------------------------------|
E|----------------------------------------------------|

[Segunda Parte]

  A               E
Spinning on that dizzy edge
   Bm                  D
I kissed her face and kissed her head
      A                    E             Bm
And dreamed of all the different ways I had
              D
To make her glow
   A             E              Bm
"Why are you so far away?" she said
               D              A
"Why won't you ever know that I'm
              E
In love with you?
  Bm              D
That I'm in love with you?"

[Ponte]

 F#m  G
You: Soft and only
 F#m  G
You: Lost and lonely
 F#m    G
You: Strange as angels
 D
Dancing in the deepest oceans

Twisting in the water
                         A  E  Bm  D 
You're just like a dream

You're just like a dream

[Solo] A  E  Bm  D
       A  E  Bm  D

E|--12-12-12-12---------------------------------------|
B|--------------14----12-12----12-14------------------|
G|-----------------14-------14-------11---------------|
D|----------------------------------------------------|
A|----------------------------------------------------|
E|----------------------------------------------------|

E|--12-12-12-12-------------------------------12------|
B|--------------14----12-12----12-14-15-14-15---------|
G|-----------------14-------14-------------------14---|
D|----------------------------------------------------|
A|----------------------------------------------------|
E|----------------------------------------------------|

E|-17-17-17-17-19-21--19-21--19-21--------------------|
B|----------------------------------------------------|
G|----------------------------------------------------|
D|----------------------------------------------------|
A|----------------------------------------------------|
E|----------------------------------------------------|
                                                               
E|--10-9-10-9---------10-9-10-9-----------------------|
B|-------------10-10------------10-10-----------------|
G|----------------------------------------------------|
D|----------------------------------------------------|
A|----------------------------------------------------|
E|----------------------------------------------------|

[Terceira Parte]

 A                 E
Daylight licked me into shape
Bm               D
I must have been asleep for days
A                E
And moving lips to breathe her name
Bm             D
I opened up my eyes
A                E
And found myself alone

Alone
Bm             D
Alone above a raging sea

[Solo Intro]

  A                  E
That stole the only girl I loved
Bm                   D
And drowned her deep inside of me

 F#m  G
You: Soft and only
 F#m  G
You: Lost and lonely
 F#m  G            D
You: Just like heaven
reproducciones 10.724
Acordes para:

    0 comentarios

    mostrar más comentarios

    ¿Conseguiste tocar?

    35 tocaron 1 aún no

    ¡Graba un vídeo tocando Just Like Heaven y envianoslo!

    00:00 / 00:00
    outros vídeos desta música
    repetir qualidade Automático
    Outros vídeos desta música
    00:00 / 00:00
    Automático
    OK