Cifra Club

Aprenda

Just Like Heaven

The Cure

Tab de bajo: Versão 3
(intro / verso 1 / verso 2 / verso 3)
G|-------------------------------------------------|
D|-------------------------------------------------|
A|-------------------------2-2-2-2-2-5-5-5-5-5-5-5-|
E|-5-5-5-5-5-0-0-0-0-0-0-0-------------------------|

(refrão)
G|-------------------------------------------------|
D|-------------------------------------------------|
A|-------------------------------------------------|
E|-2-2-2-2-2-2-3-3-3-3-3-3-2-2-2-2-2-2-3-3-3-3-3-3-|

G|-------------------------------------------------|
D|-------------------------------------------------|
A|-------------------------5-5-5-5-5-5-5-5-5-5-5-5-|
E|-2-2-2-2-2-2-3-3-3-3-3-3-------------------------|

G|---------------------|
D|-2-2-2-2-2-2-2-2-2-2-|
A|---------------------|
E|---------------------|

G|-------------------------------------------------|
D|-------------------------------------------------|
A|-------------------------------------------------|
E|-2-2-2-2-2-2-3-3-3-3-3-3-2-2-2-2-2-2-3-3-3-3-3-3-|

G|---------------------------|
D|---------------------------|
A|-------------------------5-|
E|-2-2-2-2-2-2-3-3-3-3-3-3---|
Composição de Boris Williams / Jason Cooper / Laurence Tolhurst / Paul Thomson / Porl Thompson / Robert Smith / Simon Gallup
Colaboración y revision:
  • Marcus Dutra
8 reproducciones

0 comentarios

Ver todos os comentários

¿Conseguiste tocar?

0 Tocaram 0 Ainda não

Grave um vídeo tocando Just Like Heaven e nos envie!

00:00 / 00:00
outros vídeos desta música
repetir qualidade Automático
Outros vídeos desta música
00:00 / 00:00
Automático
OK