Cifra Club

Just Say Yes

The Cure

Tablatura: Principal (guitarra)
Tom: A
Chorus

E|----------------------------------------------------------------|
B|----------------------------------------------------------------|
G|----------------------------------------------------------------|
D|--5-5-7-7-7-----5-5-5--7-7-10-10-10-12-12-12-12-12-12-12-12-13--|
A|--3-3-5-5-5-7-7-3-3-3--5-5-8--8--8--10-10-10-10-10-10-10-10-11--|
E|------------5-5-------------------------------------------------|

Only play the last Note at the end of the Chorus
Like when the Picking kicks in.
At the end of the song

!You don't play that note!

Picking

E|--------------3-------------3-3-3-2-2---------3-3-2-2----------|
B|--2-2-3-3-5-5---2-2-3-3-5-5-----------3-3-0-0---------3-3-0-0--|
G|---------------------------------------------------------------|
D|---------------------------------------------------------------|
A|---------------------------------------------------------------|
E|---------------------------------------------------------------|

Verse Part 1

E|--5-5-5-5-5-5-5-5-3-3-3-3-3-3-3-3------------------------------|
B|--5-5-5-5-5-5-5-5-3-3-3-3-3-3-3-3------------------------------|
G|--6-6-6-6-6-6-6-6-4-4-4-4-4-4-4-4------------------------------|
D|--7-7-7-7-7-7-7-7-5-5-5-5-5-5-5-5------------------------------|
A|--7-7-7-7-7-7-7-7-5-5-5-5-5-5-5-5------------------------------|
E|--5-5-5-5-5-5-5-5-3-3-3-3-3-3-3-3------------------------------|

Verse Part 2

E|--1-1-1-1-1-1-1-1-3-3-3-3-3-3-3-3------------------------------|
B|--1-1-1-1-1-1-1-1-3-3-3-3-3-3-3-3------------------------------|
G|--2-2-2-2-2-2-2-2-4-4-4-4-4-4-4-4------------------------------|
D|--3-3-3-3-3-3-3-3-5-5-5-5-5-5-5-5------------------------------|
A|--3-3-3-3-3-3-3-3-5-5-5-5-5-5-5-5------------------------------|
E|--1-1-1-1-1-1-1-1-3-3-3-3-3-3-3-3------------------------------|

Solo

E|--10--10--10-9------10--10--10-12-9--12-14/1514-12/1312-10/1210-9/19-------|
B|10--10--10----10--10--10--10-------10-----------------------------------10-|
G|---------------------------------------------------------------------------|
D|---------------------------------------------------------------------------|
A|---------------------------------------------------------------------------|
E|---------------------------------------------------------------------------|

This structure of this song is real easy

Chorus       x1
Picking      x2
Verse Part 1 x4
verse Part 2 x2
Chorus       x1
Solo         x2
Verse Part 1 x4
Verse Part 2 x2
Chorus       x6

easy
reproducciones 149
Acordes para:

    0 comentarios

    mostrar más comentarios

    ¿Conseguiste tocar?

    0 tocaron 0 aún no

    ¡Graba un vídeo tocando Just Say Yes y envianoslo!

    00:00 / 00:00
    outros vídeos desta música
    repetir qualidade Automático
    Outros vídeos desta música
    00:00 / 00:00
    Automático
    OK