Cifra Club

Love Song

The Cure

Tablatura: Principal (guitarra)
Tom: C
[Intro] Am7(9)  G  F  Em
        Am  G  F  Em
        Am7(9)  G  F  Em
        Am  G  F  Em

E|-----0---0---0-0-------------0---0---0-0------------|
B|---1-3/5-3---5-3/1---------1-3/5-3---5-3/1-0--------|
G|-2-----------------2-----------------------2--------| (2x)
D|----------------------------------------------------|
A|----------------------------------------------------|
E|----------------------------------------------------|

[Primeira Parte]

Am7(9)    G               F  Em
 Whenever I'm alone with you
Am            G              F     Em
 You make me feel like I am home again
Am7(9)    G               F  Em
 Whenever I'm alone with you
Am            G              F     Em
 You make me feel like I am home again

( Am  G  F  Em )
( Am  G  F  Em )
( Am  G  F  Em )
( Am  G  F  Em )

E|----------------------------------------------------|
B|-10-12-13-13-12-10-12-12-10-8-----------------------|
G|------------------------------9-9-9-----------------|
D|----------------------------------------------------|
A|----------------------------------------------------|
E|----------------------------------------------------|

E|----------------------------------------------------|
B|-10-12-13-13-12-10-12-12-10-8-----------------------|
G|------------------------------9-9-9-----------------|
D|----------------------------------------------------|
A|----------------------------------------------------|
E|----------------------------------------------------|

E|----------------------------------------------------|
B|-10-12-13-13-12-10-12-12-10-8-----------------------|
G|------------------------------9-9-9--7-5------------|
D|----------------------------------------------------|
A|----------------------------------------------------|
E|----------------------------------------------------|

Am7(9)    G               F  Em
 Whenever I'm alone with you
Am            G              F     Em
 You make me feel like I am home again
Am7(9)    G               F  Em
 Whenever I'm alone with you
Am            G              F     Em
 You make me feel like I am home again

[Refrão]

F         G       Am7
 However far away    
       C9
I will always love you
F         G       Am7
 However far away    
       C9
I will always love you
F          G         Am7 
 Whatever words I say 
       C9
I will always love you
F      G             
I will always love you

( Am  G  F  Em )
( Am  G  F  Em )
( Am  G  F  Em )
( Am  G  F  Em )

E|----------------------------------------------------|
B|-10-12-13-13-12-10-12-12-10-8-----------------------|
G|------------------------------9-9-9-----------------|
D|----------------------------------------------------|
A|----------------------------------------------------|
E|----------------------------------------------------|

E|----------------------------------------------------|
B|-10-12-13-13-12-10-12-12-10-8-----------------------|
G|------------------------------9-9-9-----------------|
D|----------------------------------------------------|
A|----------------------------------------------------|
E|----------------------------------------------------|

E|----------------------------------------------------|
B|-10-12-13-13-12-10-12-12-10-8-----------------------|
G|------------------------------9-9-9--7-5------------|
D|----------------------------------------------------|
A|----------------------------------------------------|
E|----------------------------------------------------|

[Solo] Am  G  F  Em
       Am  G  F  Em  
       Am  G  F  Em  
       Am  G  F  Em  

Am7(9)    G               F  Em
 Whenever I'm alone with you
Am            G              F     Em
 You make me feel like I am home again
Am7(9)    G               F  Em
 Whenever I'm alone with you
Am            G              F     Em
 You make me feel like I am home again

[Refrão]

F         G       Am7
 However far away    
       C9
I will always love you
F         G       Am7
 However far away    
       C9
I will always love you
F          G         Am7 
 Whatever words I say 
       C9
I will always love you
F      G             
I will always love you

F      G             
I will always love you

[Final] Am7(9)
reproducciones 14.663
Acordes para:
    Composição: Robert Smith Colaboración y revision:
    • Getúlio Vasconcelos
    • Francisco Pinheiro

    0 comentarios

    mostrar más comentarios

    ¿Conseguiste tocar?

    8 tocaron 0 aún no

    ¡Graba un vídeo tocando Love Song y envianoslo!

    00:00 / 00:00
    outros vídeos desta música
    repetir qualidade Automático
    Outros vídeos desta música
    00:00 / 00:00
    Automático
    OK