Cifra Club

Aprenda

Mint Car

The Cure

Tablatura: Principal (guitarra)
tono: F (con acordes en la forma de G) Afinación: D G C F A D
(guitarra 1)

(intro / verso)
|-5--5-5-0--0--0-0-0--0-0-0--0-0-0-0-0-0-0-0-|
|-7--7-7-7--3--3-3-0--3-3-0--5-5-5-5-7-7-7-7-|
|-7--7-7-7--0--0-0-0--0-0-0--0-0-0-0-0-0-0-0-|
|-0--0-0-0--0--0-0-0--0-0-0--5-5-5-5-7-7-7-7-|
|-0--0-0-0--2--2-2-2--2-2-2--0-0-0-0-0-0-0-0-|
|-----------0--0-0-0--0-0-0------------------|

(refrão)
|-0--0-0-0--0--0-0-0--0--0-0-0--0--0-0-0--0--0-0-0--0--0-0-0--0--0-0-0-
|-2--2-2-0--3--3-3-3--2--2-2-0--3--3-3-3--2--2-2-0--3--3-3-3--2--2-2-0-
|-0--0-0-0--0--0-0-0--0--0-0-0--0--0-0-0--0--0-0-0--0--0-0-0--0--0-0-0-
|-2--2-2-2--0--0-0-0--2--2-2-2--4--4-4-4--2--2-2-2--0--0-0-0--0--0-0-0-
|-0--0-0-0--2--2-2-2--0--0-0-0--2--2-2-2--0--0-0-0--2--2-2-2--2--2-2-2-
|-----------0--0-0-0------------0--0-0-0------------0--0-0-0-----------

|-5--5-5-5-|
|-3--3-3-3-|
|-0--0-0-0-|
|-4--4-4-4-|
|-2--2-2-2-|
|-0--0-0-0-|

|---------------------0--0-0-0--|----------|-0--0-0-0-|
|-0--0-0-0--0--0-0-0--3--3-3-3--|-0--0-0-0-|-3--3-3-2-|
|-0--0-0-0--2--2-2-2--0--0-0-0--|-2--2-2-2-|-0--0-0-0-|
|-2--2-2-2--2--2-2-2--0--0-0-0--|-2--2-2-2-|-2--2-2-2-|
|-2--2-2-2--0--0-0-0--2--2-2-2--|-0--0-0-0-|-0--0-0-0-|
|-0--0-0-0--2--2-2-2--3--3-3-3--|-0--0-0-0-|-0--0-0-0-|

(guitarra 2)

(intro)
|----------------15-14------|----------------------------------|
|-15----15----15-------15/8-|-15----15----15----15----15-15/17-|
|----14----14---------------|----14----14----14----14----------|
|---------------------------|----------------------------------|
|---------------------------|----------------------------------|
|---------------------------|----------------------------------|

|----------------15-14------|-------------------------------|
|-15----15----15-------15/8-|-15----15----15----15-14-------|
|----14----14---------------|----14----14----14-------16-14-|
|---------------------------|-------------------------------|
|---------------------------|-------------------------------|
|---------------------------|-------------------------------|

(solo)
|---------------------------------------------------|-10-10-9------|
|---------------------8/10-8-7-8-7-------8/10-8-7-8-|---------10---|
|------------7---7-h9--------------9-7-9------------|------------7-|
|-7-7-7-7-h9--h9------------------------------------|--------------|
|---------------------------------------------------|--------------|
|---------------------------------------------------|--------------|

|-10-10-10-9-----------------------------------|
|------------10-----------------7/10-----------|
|---------------7-7-9-7-9-7-9-7----------------|
|------------------------------------9-7-9-7/0-|
|----------------------------------------------|
|----------------------------------------------|

(refrão)
|---------------------------------------------------------------------------
|---------------------------------------------------------------------------
|-------------------------------------------------------------------6---6---
|-------------------------------------7---7----------9---9------------------
|-------7---7----------9---9------------------------------------------------
|-5-5-5---5---5--7-7-7---7---7--5-5-5---5---5--7-7-7---7---7--5-5-5---5---5-

|---------------------------------------------|
|---------------------------------------------|
|-------7---7---------------------------------|
|---------------------------------------------|
|----------------------5---5----------7---7---|
|-7-7-7---7---7--3-3-3---3---3--5-5-5---5---5-|

(solo)
|-----------5-----------------------5-----------5-10-9------|
|-5-h7-5-h7---5-h7-5-h7---5-7h-5-7h---5-h7-5-h7--------10-7-|
|-----------------------4-----------------------------------|
|-----------------------------------------------------------|
|-----------------------------------------------------------|
|-----------------------------------------------------------|

|-----------5-----------5-10-9-10-9-10/12-|
|-5-h7-5-h7---5-h7-5-h7-------------------|
|-----------------------------------------|
|-----------------------------------------|
|-----------------------------------------|
|-----------------------------------------|

|-17-17-17-17-14--------------------------------------------------------
|-19-19-17-17-15-15-15-15-12-12-10-10-10-10-8-7-8/10--------------------
|----------------------------------------------------7-7-9-7-9/11-11-11-
|-----------------------------------------------------------------------
|-----------------------------------------------------------------------
|-----------------------------------------------------------------------

|-12-12-12-10-9-10-9-------------------------|
|--------------------10----------------------|
|-----------------------7-7-9-7-9-7-9-7-9/14-|
|--------------------------------------------|
|--------------------------------------------|
|--------------------------------------------|

|-----------|
|-----7---7-|
|---7---9---|
|-7---------|
|-----------|
|-----------|
Composição de Jason Cooper / Perry Bamonte / Robert Smith / Roger O\'Donnell / Simon Gallup
Colaboración y revision:
  • Marcus Dutra
652 reproducciones
    • ½ Tono
    • A
    • Bb
    • B
    • C
    • Db
    • D
    • Eb
    • E
    • F
    • F#
    • G
    • Ab
  • Adicionar à lista

    0 comentarios

    Ver todos os comentários

    ¿Conseguiste tocar?

    0 Tocaram 0 Ainda não

    Grave um vídeo tocando Mint Car e nos envie!

    00:00 / 00:00
    outros vídeos desta música
    repetir qualidade Automático
    Outros vídeos desta música
    00:00 / 00:00
    Automático
    OK