Cifra Club

Plastic Passion

The Cure

Tablatura: Principal (guitarra)
Tom: D
Verse :    F#5 (14) - D5 (10) - B5 (7) - A5 (5) - G#5 (4) - G5 (3) 
        F#5 (2) - D5 (10) - B5 (7) - A5 (5) - G#5 (4) - G5 (3) x3 
Chorus :  C#5 (9) - B5 (7) 
  

Plastic passion is a hard to handle 
Plastic passion is a sold out scandal 
Oh! it's a plastic passion 

Plastic passion is the ladies lover 
Plastic passion is the marble mother 
Oh! it's a plastic passion 

Plastic passion is a diamond delight 
Plastic passion is the nadir of night 
Oh! it's a plastic passion 

Solo 

|----------------------------5--- 
|------------5---777-7-7-5-7----- 
|666-6-6-4-6--------------------- 
|-------------------------------- 
|-------------------------------- 
|-------------------------------- 

|-------------------------------- 
|------------5------------------- 
|666-6-6-4-6-----------------2---   x2 
|----------------444-4-4-2-4----- 
|-------------------------------- 
|-------------------------------- 

|-------------------------------- 
|-------------------------------- 
|-------------------------------- 
|------------2------------------- 
|444-4-4-2-4--------------------- 
|----------------555-5-4-4-3-3-2- 
  

Plastic passion is a hycoscine heart 
Plastic passion is a transparent tart 
Oh! it's a plastic passion 

Plastic passion is a gold guarantee 
This plastic passion is murdering me 
Oh! it's a plastic passion 
  
Chords : 

All the chords are basic Barre chords . 

 F#5(14) D5(10)  B5(7)  A5(5)  G#5(4) G5(3)  F#5(2) C#5(9) 
e--x-------x------x------x------x------x------x------x------ 
B--x-------x------x------x------x------x------x------x------ 
G--x-------x------x------x------x------x------x------x------ 
D-16------12------9------7------6------5------4-----11------ 
A-16------12------9------7------6------5------4-----11------ 
E-14------10------7------5------4------3------2------9------ 
reproducciones 136
Acordes para:

    0 comentarios

    mostrar más comentarios

    ¿Conseguiste tocar?

    0 tocaron 0 aún no

    ¡Graba un vídeo tocando Plastic Passion y envianoslo!

    00:00 / 00:00
    outros vídeos desta música
    repetir qualidade Automático
    Outros vídeos desta música
    00:00 / 00:00
    Automático
    OK